Guitar Tabs for The Cesspool

(/) Slide Up  (\) Slide Down  (h) Hammer On  (p) Pull Off  (b) Bend (r) Release (v) Vibrato (x) Muted

Tabs for Song : 
BPM : 140

The gene  -  pool,    needs a  life guard
E|--3--3-----1--1-----------------------------
B|--3--3-----1--1-----------------------------
G|--0--0-----0--0-----0--0--3--0-----3--0-----
D|--0--0-----0--0-----2--2--2--2-----2--2-----
A|--------------------3--3--3--3-----3--3-----
E|--3--3-----1--1-----------------------------

The cess  -  pool,     needs a filter for     people like you, and people like me
E|--3--3-----1--1-----------------------------------------------------------------
B|--3--3-----1--1--------------------------0--------------0-----0--------------0--
G|--0--0-----0--0-----0--0--3--0-----3--0--0--5--5--5--5--0-----0--3--3--3--3--0--
D|--0--0-----0--0-----2--2--2--2-----2--2--0--4--4--4--4--0-----0--2--2--2--2--0--
A|--------------------3--3--3--3-----3--3--0--5--5--5--5--0-----0--3--3--3--3--0--
E|--3--3-----1--1-----------------------------------------------------------------

      The genepool,      is a cesspool     Drown me out, I'm not like you
E|--------------------------------------------------------------------------------
B|--------------------------------------0--5--5--0--3--3--0--6--6--6--6--5--5--0--
G|--------4-----------------2-----------0--5--5--0--3--3--0--6--6--6--6--5--5--0--
D|--5--5--5--5--5-----3--3--3--3--3-----0--5--5--0--3--3--0--6--6--6--6--5--5--0--
A|--5--5--5--5--5-----3--3--3--3--3-----0--3--3--0--1--1--0--4--4--4--4--3--3--0--
E|--3--3--3--3--3--0--1--1--1--1--1-----------------------------------------------

                                        I don't think, I just feel like an empty-threated spiel
E|-----------------------------------------------------------------------------------------------
B|-----------------------------------------------------------------------------------------------
G|--------3-----------5--3-----------------------------------------------------------------------
D|--5--5--3-----4--4--5--3-----------------------------------------------------------------------
A|--5--5--1-----4--4--3--1--------------------1-----------3--1-----------1-----------3--1--------
E|--3--3--------2--2--------------------3--3--------2--2-----------3--3--------2--2--------------

      The genepool,      is a cesspool     Drown me out, I'm not like you (later version)
E|-----------------------------------------------------------------------------
B|-----------------0-----------------0-----------------0--------------------0--
G|-----------------0--3--3--3--3--3--0--5--5--5--5--5--0--8--8--8--8--7--7--0--
D|--5--5--5--5--5--0--3--3--3--3--3--0--5--5--5--5--5--0--8--8--8--8--7--7--0--
A|--5--5--5--5--5--0--1--1--1--1--1--0--3--3--3--3--3--0--6--6--6--6--5--5--0--
E|--3--3--3--3--3--------------------------------------------------------------






Use manual mode to free up cursor. Paste any tab in acousterr tab maker and we'll play it !!!
tabs and chords, guitar tabs, music transcription, music technology, deep learning, music information retrieval, transcribe into tabs & chords, chordify, music renditions, songsterr, reverbnation, tabulature, bollywood chords, ultimate guitar, yousician, guitar lessons, acoustic guitar, electric guitar, guitar tuner, 911 tabs