Bass Tabs for Templos -clubz

(/) Slide Up  (\) Slide Down  (h) Hammer On  (p) Pull Off  (b) Bend (r) Release (v) Vibrato (x) Muted

Tabs for Song : 
BPM : 180

TEMPLOS- CLUBZ

TABS PAL BAJO



INTRO
G|----------------7------7/9--7--5--------------------5------7/9--7--5-----
D|-----------7--10-------------------7-----------5--7--------------------7--
A|--5---5/8-----------------------------3---3/7-----------------------------
E|--------------------------------------------------------------------------
TOCA 2x VECES ^

En los templos te lloré
¿No lo recuerdas? 
G|-----------------7-----------------------------------5--
D|-----------7--10-------------------------------5--7-----
A|--5---5/8-----------------------------3---3/7-----------
E|--------------------------------------------------------


   Ya no entiendo qué será              Si no regresas         Siento que tú no estás   
G|-----------------7-----------------------------------5------7/9--7--5-----
D|-----------7--10-------------------------------5--7--------------------7--
A|--5---5/8-----------------------------3---3/7-----------------------------
E|--------------------------------------------------------------------------


Siento que tú no estás
¿Hasta dónde va a llegar?
Siento que tú no estás
G|-----------------7------7/9--7--5--------------------5------7/9--7--5-----
D|-----------7--10-------------------7-----------5--7--------------------7--
A|--5---5/8-----------------------------3---3/7-----------------------------
E|--------------------------------------------------------------------------
TOCA 2X VECES^



       Ya quiero olvidar        Es que no puedo seguir así          Ahhhhhh....                      Es que no puedo seguir así .....                  
G|---------------------7/9--7--5---------------------5/7--5------------------------------------------------------------------7/9--7--5-----
D|-----7--10-7-----7--------------7-----5--9--5--------------7--5-----------------------------------------------------------------------7--
A|--8-----------8--------------------7-----------7-----------------5--5--5-----3--5------5/7--5--3-----3--3--3-----0--3--------------------
E|--------------------------------------------------------------------------5-----------------------3-----------3--------------------------
TOCA 2X VECES^ 


 
 En los templos que lloré            Ya no hay tristeza
G|-----------------7-----------------------------------5--
D|-----------7--10-------------------------------5--7-----
A|--5---5/8-----------------------------3---3/7-----------
E|--------------------------------------------------------

Ya no paro de pensar                 Siempre me dejas..      Y cada que pueda 
G|-----------------7-----------------------------------5------7/9--7--5-----
D|-----------7--10-------------------------------5--7--------------------7--
A|--5---5/8-----------------------------3---3/7-----------------------------
E|--------------------------------------------------------------------------

        recordaré            Y lo voy a hacer, y lo voy a hacer..etc  
G|-----------------7------7/9--7--5--------------------5------7/9--7--5-----
D|-----------7--10-------------------7-----------5--7--------------------7--
A|--5---5/8-----------------------------3--3--7-----------------------------
E|--------------------------------------------------------------------------
TOCA 2X VECES^

 quiero olvidar                      Es que no puedo seguir así       Ahhhhhh                 Es que no puedo seguir así
G|---------------------7/9--7--5------------------------5/7--5------------------------------------------------------------------7/9--7--5-----
D|-----7--10-7-----7--------------7-----5--9--5-----5-----------7--5-----------------------------------------------------------------------7--
A|--8-----------8--------------------7-----------7--------------------5--5--5-----3--5------5/7--5--3-----3--3--3-----0--3--------------------
E|-----------------------------------------------------------------------------5-----------------------3-----------3--------------------------
TOCA 2X VECES^



OUTRO
G|-----------------------------------------5-----------------------------------------5--
D|--------------------------------------7-----------------------------------------7-----
A|-----5-----3--5--5--5--5--5-----3--5-----------5-----3--5--5--5--5--5-----3--5--------
E|--------5--------------------5--------------------5--------------------5--------------
TOCA 8X VECES




Use anual mode to free up cursor. Paste any tab in acousterr tab maker and we'll play it !!!
tabs and chords, guitar tabs, music transcription, music technology, deep learning, music information retrieval, transcribe into tabs & chords, chordify, music renditions, songsterr, reverbnation, tabulature, bollywood chords, ultimate guitar, yousician, guitar lessons, acoustic guitar, electric guitar, guitar tuner, 911 tabs