Guitar Tabs for Talyat

Tabs for Song : Talyat by Tinariwen
capo at 1st fret

E|--------------------------------------------------------------------------------
B|-----1--------------------------------------------------------------------------
G|-----------3--2--3--2--------0--0-----0--0--------0--0--------------------------
D|-----------------------3--------------------------------2--3--2--0--2--0-----0--
A|--------------------------------------------------------------------------3-----
G|-----------------------------------0--------0-----------------------------------
Song lyrics here
E|--------------------------------------------------------------------
B|--------------------------------------------------------------------
G|-----------2--3--3--3--3--3--2--3-----0--2--------0--0-----0--0-----
D|--2-----3-----------------------------------3-----------------------
A|--------------------------------------------------------------------
G|--------------------------------------------------------0--------0--

E|--------------------------------------
B|--------------------------------------
G|-----------0--0-----0--0-----0--0-----
D|--3--2--3-----------------------------
A|--------------------------------------
G|-----------------0--------0--------0--

Paste any tab in acousterr's tab maker and we'll play it !!!
Now supports capo and sound effects for vibrato/pull-off/hammer/bends/mutes etc !!! Checkout help section
tabs and chords, guitar tabs, music transcription, music technology, deep learning, music information retrieval, transcribe into tabs & chords, chordify, music renditions, songsterr, reverbnation, tabulature, bollywood chords, ultimate guitar, yousician, guitar lessons, acoustic guitar, electric guitar, guitar tuner, 911 tabs