Guitar Tabs for T M B A

(/) Slide Up  (\) Slide Down  (h) Hammer On  (p) Pull Off  (b) Bend (r) Release (v) Vibrato (x) Muted
(DT) Depress Tremelo  (RT) Raise Tremelo  (BU) Bend Up  (VS) Volume Swell

Tabs for Song : Take My Breath Away
BPM : 96

                                  DT 
E|-----------------------------------------1-----------------------------------------------
B|--10-10-10-10-10\5--9--9--9--9--9--5--7--1--10-10-10-10-10\5--9--9--9--9--9--5---7p5-----
G|-----------------------------------------1--------------------------------------------6--
D|-----------------------------------------1-----------------------------------------------
A|-----------------------------------------1-----------------------------------------------
E|-----------------------------------------1-----------------------------------------------

Song lyrics here 
E|-----------------------------------------------1-----------------------------------------------
B|--12-12-12-12-12\7--10-10-10-7--10/12--9\7-----1--10-10-10-10-10\5--9--9--9--9--9--5---7p5-----
G|--------------------------------------------9--1--------------------------------------------7--
D|-----------------------------------------------1-----------------------------------------------
A|-----------------------------------------------1-----------------------------------------------
E|-----------------------------------------------1-----------------------------------------------
                                                                      DT
E|-----------------1-----------------1--9--9--9--9---9\5--7--7--7--7--7--4--5--
B|--------10-12-10-1--------10-12-10-1--10-10-10-10-10\5--9--9--9--9--9--5--7--
G|--9--11----------1--9--11----------1-----------------------------------------
D|-----------------1-----------------1-----------------------------------------
A|-----------------1-----------------1-----------------------------------------
E|-----------------1-----------------1-----------------------------------------
                                  DT
E|--9--9--9--9---9\5--7--7--7--7--7--4--5--1--10-10-10-10-10\7--9--9--9-----9--10-7--5--4--
B|--10-10-10-10--9\5--9--9--9--9--9--5--7--1--12-12-12-12-12\7--10-10-10-10-10-12-9--7--5--
G|-----------------------------------------1-----------------------------11----------------
D|-----------------------------------------1-----------------------------------------------
A|-----------------------------------------1-----------------------------------------------
E|-----------------------------------------1-----------------------------------------------

E|--9--9--9--9---9\5--7--7--7--7--7--4--5--4--2-----------1--------5--7--5--
B|--10-10-10-10-10\5--9--9--9--9--9--5--7--5--3---5/7--5--1--5--7-----------
G|--------------------------------------------------------1-----------------
D|--------------------------------------------------------1-----------------
A|--------------------------------------------------------1-----------------
E|--------------------------------------------------------1-----------------
                       [  BU 1\2    ]                                 [  BU 1/2    ]                                                                            SP
E|-----------------------------------------------1-----------------------------------------------
B|--12-12-12-12-12-12b11b11b11b11b11-10-9--------1--12-12-12-12-12-12b11b11b11b11b11-10-9--------
G|-----------------------------------------11-9--1-----------------------------------------11-9--
D|-----------------------------------------------1-----------------------------------------------
A|-----------------------------------------------1-----------------------------------------------
E|-----------------------------------------------1-----------------------------------------------
                          
E|--------------------1--------------------1-----------------1-----------------
B|-----------9--10----1--7---5/7--5--------1--------10-12-10-1--------10-12-10-
G|--9--9--11-------11-1---------------6\4--1--9--11----------1--9--11----------
D|--------------------1--------------------1-----------------1-----------------
A|--------------------1--------------------1-----------------1-----------------
E|--------------------1--------------------1-----------------1-----------------
                            DT
E|--12-12-12-12\8--10-10-10-10-7--8--1--12-12-12-12-12\8--10-10-10-10-10-7--8--7-----
B|--13-13-13-13\8--12-12-12-12-8--10-1--13-13-13-13-13\8--12-12-12-12-12-8--10-8--8--
G|-----------------------------------1--------------------------------------------9--
D|-----------------------------------1-----------------------------------------------
A|-----------------------------------1-----------------------------------------------
E|-----------------------------------1-----------------------------------------------
                                                                            RT 1/2
E|--13-13-13-13\10-12-12-12----12-13-10-8--7--1--12-12-12-12\8--10-10-10-10-10b10-8--7--5-----------
B|--15-15-15-15\10-13-13-13-13-13-15-12-10-8--1--13-13-13-13\8--12-12-12-12-12b12-10-8--6---8/10-8--
G|--------------------------14----------------1-----------------------------------------------------
D|--------------------------------------------1-----------------------------------------------------
A|--------------------------------------------1-----------------------------------------------------
E|--------------------------------------------1-----------------------------------------------------

E|--------8--10--8/10-8--1--------8--10--8/10-8--1--------8--10--8/10-8--1--12-10-10-10----------------
B|--8--10----------------1--8--10----------------1--8--10----------------1--------------12-12-12-------
G|-----------------------1-----------------------1-----------------------1-----------------------12-12-
D|-----------------------1-----------------------1-----------------------1-----------------------------
A|-----------------------1-----------------------1-----------------------1-----------------------------
E|-----------------------1-----------------------1-----------------------1-----------------------------

E|--------------1-----------------1--------------------1-----------------
B|--------13-13-1--------13-15-13-1--12-10-------------1--------13-15-13-
G|--12/14-------1--12-14----------1--------12-9--------1--12-14----------
D|--------------1-----------------1--------------12-10-1-----------------
A|--------------1-----------------1--------------------1-----------------
E|--------------1-----------------1--------------------1-----------------



Use manual mode to free up cursor. Paste any tab in acousterr tab maker and we'll play it !!!
tabs and chords, guitar tabs, music transcription, music technology, deep learning, music information retrieval, transcribe into tabs & chords, chordify, music renditions, songsterr, reverbnation, tabulature, bollywood chords, ultimate guitar, yousician, guitar lessons, acoustic guitar, electric guitar, guitar tuner, 911 tabs