Guitar Tabs for Swag Se Swagat - Tiger Zinda Hai Tabs

(/) Slide Up  (\) Slide Down  (h) Hammer On  (p) Pull Off  (b) Bend (r) Release (v) Vibrato

Tabs for Song : Swag Se Swagat

Intro 1
E|--------------------------------------------3--
B|-----------------------------------------------
G|--5--5-----5--5--6--3-----5--5-----5--5--6-----
D|-----------------------5-----------------------
A|-----------------------------------------------
E|-----------------------------------------------

Intro 2
E|-----------------------------------
B|-----------------------------------
G|--3--5--5--6--5--5--3--5--5--3-----
D|--------------------------------5--
A|-----------------------------------
E|-----------------------------------

Intro 3
E|-----------------------------------
B|--------------------5--5--5--------
G|--3--5--5--6--5--5-----------6--5--
D|-----------------------------------
A|-----------------------------------
E|-----------------------------------

Ishq se aage? Kuch nahi kuch nahi kuch
Ishq se behtar? Kuch nahi kuch nahi kuch
Ishq se upar? Kuch nahi kuch nahi kuch
E|--3--3--3--4--3-----3--3-----3--3-----3--
B|-----------------6--------6--------6-----
G|-----------------------------------------
D|-----------------------------------------
A|-----------------------------------------
E|-----------------------------------------

Ishq bina hum kuch nahi
E|--------3-----------------
B|--5--5-----6--4--------5--
G|-----------------6--5-----
D|--------------------------
A|--------------------------
E|--------------------------

Chaahe jo aaye Leke dil mein ishq mohabaat
E|--6--3--4--6--3-----3--3--3-----3--3--4--6--6--3-----3--
B|-----------------6--------------------------------6-----
G|--------------------------------------------------------
D|--------------------------------------------------------
A|--------------------------------------------------------
E|--------------------------------------------------------

Sabko gale lagaana Apne culture ki hai aadat
E|--3--4--6--6--3-----3--3--3-----3-----------------
B|-----------------6-----------------6--6--5-----5--
G|--------------------------------------------6-----
D|--------------------------------------------------
A|--------------------------------------------------
E|--------------------------------------------------

Swag se karenge sabka swagat
E|-----------------------------
B|--4--4-----------------------
G|--------6--5--3--3--5--6--5--
D|-----------------------------
A|-----------------------------
E|-----------------------------
tabs and chords, guitar tabs, music transcription, music technology, deep learning, music information retrieval, transcribe into tabs & chords, chordify, music renditions, songsterr, reverbnation, tabulature, bollywood chords, ultimate guitar, yousician, guitar lessons, acoustic guitar, electric guitar, guitar tuner, 911 tabs