Guitar Tabs for Dil Ne Ye Kaha Hai Dil Se

Tum jo keh do to chaand taaron ko
Tod laaunga main
E|--11-9---9h11p9--------11-9---9h11p9--------11-9---9h11p9-----9-----------
B|-----------------12-12----------------12-12----------------12----11-------
G|--------------------------------------------------------------------------
D|--------------------------------------------------------------------------
A|--------------------------------------------------------------------------
E|--------------------------------------------------------------------------

In havaon ko, in ghataaon ko
Mod laaunga main
E|--9--7---7h-9p7--------9--7---7h-9p7--------9--7---7h-9p7-----7--------
B|-----------------11-11----------------11-11----------------11----9-----
G|-----------------------------------------------------------------------
D|-----------------------------------------------------------------------
A|-----------------------------------------------------------------------
E|-----------------------------------------------------------------------

Kadmon mein jahan yeh rakh doon
Mujhse aankhein chaar kar lo
E|--------------11-9-----11-9-----------------9--------9--------
B|--9--11-11/12-------12----------7--9---9/11----12-11----11----
G|--------------------------------------------------------------
D|--------------------------------------------------------------
A|--------------------------------------------------------------
E|--------------------------------------------------------------

Jitna bekaraar hoon main
Khud ko bekaraar kar lo
E|--------------11-9-----9--11----------------9--------9--------
B|--9--11-11/12-------12----------7--9---9/11----12-11----12----
G|--------------------------------------------------------------
D|--------------------------------------------------------------
A|--------------------------------------------------------------
E|--------------------------------------------------------------

Meri dhadkanon ko samjho
Tum bhi mujhse pyaar kar lo
E|-----------------------------------------------------------------
B|--------9--12-11-9--12-11----11-9---9\8--8---8/11-11-11\9--9-----
G|--9--11----------------------------------------------------------
D|-----------------------------------------------------------------
A|-----------------------------------------------------------------
E|-----------------------------------------------------------------

Dil ne yeh kaha hai dil se
Mohabbat ho gayi hai tumse
E|--------9--------------------------------9--------------------
B|--9--11----11-9--8--11-9-----9--9--9--11----11-9--8--11-9-----
G|--------------------------------------------------------------
D|--------------------------------------------------------------
A|--------------------------------------------------------------
E|-----------------------------------------------------------------


Meri jaan mere dilbar
Mera aitbar kar lo
E|--------------11-9-----11-9-----------------9--------9--------
B|--9--11-11/12-------12----------7--9---9/11----12-11----12----
G|--------------------------------------------------------------
D|--------------------------------------------------------------
A|--------------------------------------------------------------
E|--------------------------------------------------------------

Jitna bekaraar hoon main
Khud ko bekaraar kar lo
E|--------------11-9-----11-9-----------------9--------9--------
B|--9--11-11/12-------12----------7--9---9/11----12-11----12----
G|--------------------------------------------------------------
D|--------------------------------------------------------------
A|--------------------------------------------------------------
E|--------------------------------------------------------------

Meri dhadkanon ko samjho
Tum bhi mujhse pyaar kar lo
E|-----------------------------------------------------------------
B|--------9--12-11-9--12-11----11-9---9\8--8---8/11-11-11\9--9-----
G|--9--11----------------------------------------------------------
D|-----------------------------------------------------------------
A|-----------------------------------------------------------------
E|-----------------------------------------------------------------


-
E|-----------------------------------------------------------------------------------------
B|--9--9--9---8h-9p8--------------------------9--9--9---8h-9p8-----------------------------
G|--------------------8--11-11-11--9h11p9--8--------------------8--11-11-11--9h11p9--8-----
D|-----------------------------------------------------------------------------------------
A|-----------------------------------------------------------------------------------------
E|-----------------------------------------------------------------------------------------


tabs and chords, guitar tabs, music transcription, music technology, deep learning, music information retrieval, transcribe into tabs & chords, chordify, music renditions, songsterr, reverbnation, tabulature, bollywood chords, ultimate guitar, yousician, guitar lessons, acoustic guitar, electric guitar, guitar tuner, 911 tabs