Guitar Tabs for Dil Ne Ye Kaha Hai Dil Se - Dhadkan Tabs

(/) Slide Up  (\) Slide Down  (h) Hammer On  (p) Pull Off  (b) Bend (r) Release (v) Vibrato (x) Muted

Tabs for Song : Dil Ne Yeh Kaha Hai Dil Se

Dil ne yeh kaha hai dil se Mohabbat ho gayi hai tumse
E|-----------------------------------------------------
B|--------6--------------------------6-----------------
G|--5--7-----7--5-----7--5--5--5--7-----7--5-----7--5--
D|-----------------8--------------------------8--------
A|-----------------------------------------------------
E|-----------------------------------------------------

Meri jaan mere dilbar Mera aitbar kar lo
E|--------------------------------------------------------
B|-----------8-----------8--------------------------------
G|--5--7--8-----10-8--10----10-------7--10-8--7--8--10-8--
D|-----------------------------8--10----------------------
A|--------------------------------------------------------
E|--------------------------------------------------------

Jitna bekaraar hoon main Khud ko bekaraar kar lo
E|--------------------------------------------------------
B|-----------8--------9--8--------------------------------
G|-----7--8-----10-8--------10-------7--10-8--7--8--10-8--
D|--10-------------------------8--10----------------------
A|--------------------------------------------------------
E|--------------------------------------------------------

Meri dhadkanon ko samjho Tum bhi mujhse pyaar kar lo
E|-----------------------------------------------------------
B|-----------------------------------------------------------
G|--------5--8--7--5--7--8--7--7--5--4--4---5/7--7---7\5--5--
D|--6--8-----------------------------------------------------
A|-----------------------------------------------------------
E|-----------------------------------------------------------

Dil ne yeh kaha hai dil se Mohabbat ho gayi hai tumse
E|-----------------------------------------------------
B|--------6--------------------------6-----------------
G|--5--7-----7--5-----7--5--5--5--7-----7--5-----7--5--
D|-----------------8--------------------------8--------
A|-----------------------------------------------------
E|-----------------------------------------------------
tabs and chords, guitar tabs, music transcription, music technology, deep learning, music information retrieval, transcribe into tabs & chords, chordify, music renditions, songsterr, reverbnation, tabulature, bollywood chords, ultimate guitar, yousician, guitar lessons, acoustic guitar, electric guitar, guitar tuner, 911 tabs