Guitar Tabs for Dil Diyan Gallan - Tiger Zinda Hai Tabs

(/) Slide Up  (\) Slide Down  (h) Hammer On  (p) Pull Off  (b) Bend (r) Release (v) Vibrato

Tabs for Song : Dil Diya Gallan

Kacchi doriyon, doriyon, doriyon se
E|-----------2--2--2-----2--3--3--3--2--2--------2-----
B|--3--5--5-----------5--------------------5--3-----5--
G|-----------------------------------------------------
D|-----------------------------------------------------
A|-----------------------------------------------------
E|-----------------------------------------------------

Mainu tu baandh le
E|--2--------------------
B|-----5--3-----3--5--3--
G|-----------4-----------
D|-----------------------
A|-----------------------
E|-----------------------

Pakki yaariyon, yaariyon, yaariyon mein
Honde na faasley..(Same As Previous One)

Eh naraazgi kaagzi saari teri
E|--2--3---3/7--7--7--5------7/9--9--9--7--------------
B|-----------------------------------------10-8--10-7--
G|-----------------------------------------------------
D|-----------------------------------------------------
A|-----------------------------------------------------
E|-----------------------------------------------------

Mere sohneya sunn le meri
E|---------5/7--7--7--5---7/9--9--9--7--------------
B|--7--8--------------------------------10-8--7-----
G|-----------------------------------------------9--
D|--------------------------------------------------
A|--------------------------------------------------
E|--------------------------------------------------

Dil diyan gallan Karaange naal naal beh ke
E|--------------------------------10-7--7--7--7--10-7--------
B|--8--7-----7--8---8/10-7--7--8-----------------------10-8--
G|--------9--------------------------------------------------
D|-----------------------------------------------------------
A|-----------------------------------------------------------
E|-----------------------------------------------------------

Akh naale akh nu milaa ke
E|---7/10h---10-10----------7-----7-----
B|-----------------8--8--10----10----10-
G|--------------------------------------
D|--------------------------------------
A|--------------------------------------
E|--------------------------------------

Again Repeat Dil Diyan Gallan..
tabs and chords, guitar tabs, music contests, music covers, songsterr, reverbnation, renditions, tabulature, bollywood chords, ultimate guitar, yousician, guitar lessons, torrins, fender, gibson, acoustic guitar, electric guitar, youtube covers, gootar, guitar tuner, A-Z tabs, 911 tabs