Guitar Tabs for Dil Diyan Gallan - Tiger Zinda Hai

(/) Slide Up  (\) Slide Down  (h) Hammer On  (p) Pull Off  (b) Bend (r) Release (v) Vibrato

Tabs for Song : 

Song lyrics here
E|--------------------------------------------
B|--------7--7--7------8--8--8--7--7----------
G|--7--9-----------9-----------------7--9--9--
D|--------------------------------------------
A|--------------------------------------------
E|--------------------------------------------

Song lyrics here
E|-----------------------
B|--7--------------------
G|-----9--7-----7--9--7--
D|-----------9-----------
A|-----------------------
E|-----------------------

E|--------7--7--7-----9--9--9--------------------
B|--7--8-----------10----------10-10p8--8--10-7--
G|-----------------------------------------------
D|-----------------------------------------------
A|-----------------------------------------------
E|-----------------------------------------------

E|--------7--7--7-----9--9--9--------------
B|--7--8-----------10----------10--7h8-----
G|--------------------------------------9--
D|-----------------------------------------
A|-----------------------------------------
E|-----------------------------------------

E|--------------------
B|---7h8-----7--8--10-
G|--------9-----------
D|--------------------
A|--------------------
E|--------------------

E|--------------10p7--7--7--10p7--------
B|--7--7--8--8--------------------10-8--
G|--------------------------------------
D|--------------------------------------
A|--------------------------------------
E|--------------------------------------

E|--10----------------7--------
B|-----8--8--8--8--10----10-10-
G|-----------------------------
D|-----------------------------
A|-----------------------------
E|-----------------------------

E|--------------14-12h14-10-
B|--10-10-12-10-------------
G|--------------------------
D|--------------------------
A|--------------------------
E|--------------------------

E|--10----------------7--------
B|-----8--8--8--8--10----10-10-
G|-----------------------------
D|-----------------------------
A|-----------------------------
E|-----------------------------

E|--10-12-15-15-14-14-10-10-10-------------------
B|-----------------------------12-10h12-10h12-10-
G|-----------------------------------------------
D|-----------------------------------------------
A|-----------------------------------------------
E|-----------------------------------------------

E|--
B|--
G|--
D|--
A|--
E|--

Now supports capo and sound effects for vibrato/pull-off/hammer/bends etc !!! Checkout help section
tabs and chords, guitar tabs, music transcription, music technology, deep learning, music information retrieval, transcribe into tabs & chords, chordify, music renditions, songsterr, reverbnation, tabulature, bollywood chords, ultimate guitar, yousician, guitar lessons, acoustic guitar, electric guitar, guitar tuner, 911 tabs