Bass Tabs for Superfluo

(/) Slide Up  (\) Slide Down  (h) Hammer On  (p) Pull Off  (b) Bend (r) Release (v) Vibrato (x) Muted

Tabs for Song : 

Song lyrics here
F|-----------------------------------------------------------------------------
C|-----------------------------------------------------------------------------
G|-----------------------------------------------------------------------------
C|--12-12-12-12-12-12-12-12-12-0--0--0--12-12-12-12-12-12-12-12-12-0--0--0-----

F|-----
C|-----
G|-----
C|--0--

F|-----------------------------------------------------------------------------------------------
C|-----------------------------------------------------------------------------------------------
G|-----------------------------------------------------------------------------------------------
C|--4-----4-----4-----4-----4--------------------0--0-----------------4--4-----------------0--0--



Song lyrics here
F|-----------------
C|-----------------
G|-----------------
C|--8--8--8--8--8--

F|--------------------------------------------------
C|--------------------------------------------------
G|--------------------------------------------------
C|--4--4--4--4--8--8--8--8--4--4--4--4--8--8--8--8--

F|--------------------------------------------------------------------------
C|--------------------------------------------------------------------------
G|--------------------------------------------------------------------------
C|--12-12-12-12-12-12-12-12-12-0--0--0--12-12-12-12-12-12-12-12-12-0--0--0--

F|--------------------------------------------------------------------------
C|--------------------------------------------------------------------------
G|--------------------------------------------------------------------------
C|--0--0--0--0--0--0--4--4--4--4--4--4--0--0--0--0--0--0--4--4--4--4--4--4--

F|--------------------------------------------------------------
C|--------------------------------------------------------------
G|--------------------------------------------------------------
C|--4--4--4--4--4--4--4--4--4--4--8--8--8--8--8--8--8--8--8--8--

F|-----------------------------------------------------------------------------------
C|-----------------------------------------------------------------------------------
G|-----------------------------------------------------------------------------------
C|--8--------8--------8--------8--------8--------0--------0--------0--------0--------

F|-----
C|-----
G|-----
C|--0--

F|--
C|--
G|--
C|--

Paste any tab in acousterr's tab maker and we'll play it !!!
F|--------------------------
C|--------------------------
G|--------------------------
C|--0--0--0--0--0--0--0--0--

F|--------------------------
C|--------------------------
G|--------------------------
C|--5--4--4--5--4-----8--8--

F|--------------------------------------
C|--------------------------------------
G|--------------------------------------
C|--4--4--4--4--4--4--4--4--4--4--4--4--

F|-----------------------------------------------
C|-----------------------------------------------
G|-----------------------------------------------
C|--0--0--0-----0--0--0-----0--0--0-----0--0--0--

F|-----
C|-----
G|-----
C|--4--

Now supports capo and sound effects for vibrato/pull-off/hammer/bends/mutes etc !!! Checkout help sectio
tabs and chords, guitar tabs, music transcription, music technology, deep learning, music information retrieval, transcribe into tabs & chords, chordify, music renditions, songsterr, reverbnation, tabulature, bollywood chords, ultimate guitar, yousician, guitar lessons, acoustic guitar, electric guitar, guitar tuner, 911 tabs