Guitar Tabs for Superfluo Guit 02

(/) Slide Up  (\) Slide Down  (h) Hammer On  (p) Pull Off  (b) Bend (r) Release (v) Vibrato (x) Muted

Tabs for Song : 

Song lyrics here
D|-----------------------------------------------------------
A|-----------------------------------------------------------
F|--5--------------5--------------5--------------5-----------
C|-----------------------------------------------------------
G|-----------------------------------------------------------
C|-----------------------------------------------------------

D|-----------------------------------------------------------------------------------------------------------------------------------------------
A|--14-------------------------------------------14-------------------------------------------14-------------------------------------------14----
F|--------------14-------------------------------------------14-------------------------------14-------------------------------14----------------
C|--------------------------12-------------------------------------------12-------------------12-------------------12----------------------------
G|-----------------------------------------------------------------------------------------------------------------------------------------------
C|-----------------------------------------------------------------------------------------------------------------------------------------------

D|-----------------------------------------------------------------------------------------------------------------------------------------
A|--14-14----------------------------------------14-14-------------------------------------14----------------------14----------------------
F|--------------14-14----------------------------------------14-14-------------------------------14----------------------14----------------
C|--------------------------12-12----------------------------------------12-12-------------------------12----------------------12----------
G|-----------------------------------------------------------------------------------------------------------------------------------------
C|-----------------------------------------------------------------------------------------------------------------------------------------

D|-----------------------------------------------------------------------------------
A|--12----------------------15-14-12-15-14-12-15-14-12-15-14-12----------------------
F|-----------------------------------------------------------------------------------
C|-----------------------------------------------------------------------------------
G|-----------------------------------------------------------------------------------
C|-----------------------------------------------------------------------------------

D|--------------------------------------------------------------------------
A|--------------------8-----------------------------------8-----------------
F|--7--------------------------9--------7--------------------------9--------
C|-----------10----------------------------------10-------------------------
G|--------------------------------------------------------------------------
C|--------------------------------------------------------------------------

D|--------------------------------------------------------------------------
A|--12-12-12-12-12-12-14-14-14-14-14-14-15-15-15-15-15-15-14-14-14-14-14-14-
F|--------------------------------------------------------------------------
C|--------------------------------------------------------------------------
G|--------------------------------------------------------------------------
C|--------------------------------------------------------------------------

D|--------------------------------------------------------------------------------------------
A|--------------------------------------------------------------------------------------------
F|--9--10-9--10-9--10-9--10-9--10-9--10-9--10-------------9--------10-------9--------10-------
C|--------------------------------------------------------------------------------------------
G|--------------------------------------------------------------------------------------------
C|--------------------------------------------------------------------------------------------

D|--------------------------------------------------------------------------------
A|--------------------------------------------------------------------------------
F|--12-12-12-11-11-11-12-12-12-11-11-11-12-12-12----------12-------12-------12----
C|--------------------------------------------------------------------------------
G|--------------------------------------------------------------------------------
C|--------------------------------------------------------------------------------

D|-----------------------------------------------------------------------------------------------------
A|--8--7--8-----12-------------------------------------------------------------------------------------
F|-----------------------------------------11-12-11-12-11-12-11-12-11-12-11-12-11-12-11-12-11-12-11-12-
C|-----------------------------------------------------------------------------------------------------
G|-----------------------------------------------------------------------------------------------------
C|-----------------------------------------------------------------------------------------------------

D|-----------------------------------------------------------------------------
A|--8--7-----12----------------------------------------------------------------
F|-----------------------------------11-12-11-12-11-12-11-12-11-12-11-12-11-12-
C|-----------------------------------------------------------------------------
G|-----------------------------------------------------------------------------
C|-----------------------------------------------------------------------------

D|--------------------------
A|--------------------------
F|--11----------------------
C|--------------------------
G|--------------------------
C|--------------------------

Song lyrics here
D|--
A|--
F|--
C|--
G|--
C|--

Paste any tab in acousterr's tab maker and we'll play it !!!
Now supports capo and sound effects for vibrato/pull-off/hammer/bends/mutes etc !!! Checkout help section
tabs and chords, guitar tabs, music transcription, music technology, deep learning, music information retrieval, transcribe into tabs & chords, chordify, music renditions, songsterr, reverbnation, tabulature, bollywood chords, ultimate guitar, yousician, guitar lessons, acoustic guitar, electric guitar, guitar tuner, 911 tabs