Guitar Tabs for Superfluo

(/) Slide Up  (\) Slide Down  (h) Hammer On  (p) Pull Off  (b) Bend (r) Release (v) Vibrato (x) Muted

Tabs for Song : 

Song lyrics here
D|-----------------------------
A|-----------------------------
F|-----------------------------
C|--0--0--0-----------0--0--0--
G|--0--0--0-----------0--0--0--
C|--0--0--0-----------0--0--0--

D|--------------------------------------
A|--------------------------------------
F|--6-----6--------------------------10-
C|--------------0-----0-----------------
G|--------------0-----0-----------------
C|--4-----4-----0-----0--------------8--

D|-----------------------------
A|-----------------------------
F|-----------------------------
C|--4--4--4--4--8--8--8--8-----
G|--4--4--4--4--8--8--8--8-----
C|--4--4--4--4--8--8--8--8-----



D|--------------------------
A|--------------------------
F|--------------------------
C|--0--0--0--0--4--4--4--4--
G|--0--0--0--0--4--4--4--4--
C|--0--0--0--0--4--4--4--4--

D|--------------------------------------------------------------------
A|--------------------------------------------------------------------
F|--6-----------------10----------------10----------------------------
C|--4-----------------8-----------------8-----------------0-----------
G|--4-----------------8-----------------8-----------------0-----------
C|--4-----------------8-----------------8-----------------0-----------

D|-----------
A|-----------
F|-----------
C|--5--4--8--
G|--5--4--8--
C|--5--4--8--

D|-----
A|-----
F|--6--
C|--4--
G|--4--
C|--4--

D|--
A|--
F|--
C|--
G|--
C|--

D|--
A|--
F|--
C|--
G|--
C|--

Song lyrics here
D|--
A|--
F|--
C|--
G|--
C|--

Paste any tab in acousterr's tab maker and we'll play it !!!
Now supports capo and sound effects for vibrato/pull-off/hammer/bends/mutes etc !!! Checkout help section
tabs and chords, guitar tabs, music transcription, music technology, deep learning, music information retrieval, transcribe into tabs & chords, chordify, music renditions, songsterr, reverbnation, tabulature, bollywood chords, ultimate guitar, yousician, guitar lessons, acoustic guitar, electric guitar, guitar tuner, 911 tabs