Guitar Tabs for Tokyorama Guitarra 01

(/) Slide Up  (\) Slide Down  (h) Hammer On  (p) Pull Off  (b) Bend (r) Release (v) Vibrato (x) Muted

Tabs for Song : 

Song lyrics here
D|--5--
A|--6--
F|--7--
C|--5--
G|--5--
C|--5--

Song lyrics here
D|-----------------------------------------------------
A|-----------------------------------------------------
F|-----------------------------------------------------
C|--5-----7-----3-----0-----3-----------------0--------
G|--3-----5-----3-----0-----3-----------------0--------
C|--3-----5-----3-----0-----3-----------------0--------

D|-----------------------------------------------------------------5--
A|--6-----------------------------------------8--8-----8--8--------7--
F|--7-----------------------------------------7--7-----7--7--------6--
C|--5--------------------------------------------------------------5--
G|--5--------------------------------------------------------------5--
C|--5--------------------5--5--5--5--5--5--5-----------------------5--

D|-----------------------------------
A|-----------------------------------
F|-----------------------------------
C|--5-----7-----3-----------5--------
G|--3-----5-----3-----------5--------
C|--3-----5-----3-----------5--------

D|--------
A|--------
F|--7-----
C|--5-----
G|--5-----
C|--5-----



Paste any tab in acousterr's tab maker and we'll play it !!!
Now supports capo and sound effects for vibrato/pull-off/hammer/bends/mutes etc !!! Checkout help section
tabs and chords, guitar tabs, music transcription, music technology, deep learning, music information retrieval, transcribe into tabs & chords, chordify, music renditions, songsterr, reverbnation, tabulature, bollywood chords, ultimate guitar, yousician, guitar lessons, acoustic guitar, electric guitar, guitar tuner, 911 tabs