Guitar Tabs for En La Noche Guitarra 01

(/) Slide Up  (\) Slide Down  (h) Hammer On  (p) Pull Off  (b) Bend (r) Release (v) Vibrato (x) Muted

Tabs for Song : 

Song lyrics here
D|--------------------------------------------------12-12-12-12-12-12-12-12-12-12-12----
A|--5-----5-----8-----8-----5-----5-----8-----------------------------------------------
F|--------------------------------------------------------------------------------------
C|--------------------------------------------------------------------------------------
G|--------------------------------------------------------------------------------------
C|--------------------------------------------------------------------------------------

D|--------------------------------------13-13-13-13-------------------------------------13----13----
A|--12-12-12-12-13-13-13-13-12-12-12-12-------------12-12-12-12-13-13-13-13-12-12-12-12-------------
F|--------------------------------------------------------------------------------------------------
C|--------------------------------------------------------------------------------------------------
G|--------------------------------------------------------------------------------------------------
C|--------------------------------------------------------------------------------------------------

D|--------------------------------------12-12-12-12-13-13-13-13-------------13-13-12-12-------------------------
A|--5--5--8--8--5--5--8--8--8--8--------------------------------12-12-12-12-------------12----------12----------
F|--------------------------------------------------------------------------------------------------------------
C|--------------------------------------------------------------------------------------------------------------
G|--------------------------------------------------------------------------------------------------------------
C|--------------------------------------------------------------------------------------------------------------

D|-----12----12----12----13----13----13----13----
A|--10----10----10----10----10----10----10----10-
F|-----------------------------------------------
C|-----------------------------------------------
G|-----------------------------------------------
C|-----------------------------------------------

D|--------------------------12-12-12-12-12-12-12-------------------------------------
A|--13-13-13-13-13-13-13-13----------------------13-13-13-13-------------5-----------
F|-----------------------------------------------------------------------------------
C|-----------------------------------------------------------------------------------
G|-----------------------------------------------------------------------------------
C|-----------------------------------------------------------------------------------

D|-----------------------------------------------------------------------------------------------------------------
A|--12-12-12-12-12-12-13-13-13-13-13-13-13-13-12-12-12-12-12-12-12-12-13-13-13-13-13-13-13-13-13-13-13-13-------12-
F|-----------------------------------------------------------------------------------------------------------------
C|-----------------------------------------------------------------------------------------------------------------
G|-----------------------------------------------------------------------------------------------------------------
C|-----------------------------------------------------------------------------------------------------------------

D|--3--2--5-----------------12-12-12-12-12-12-13-13-13-13-13-13-------------------------------------
A|--------------------------------------------------------------12-12-12-12-12-12-12-12-12-12-12-12-
F|--------------------------------------------------------------------------------------------------
C|--------------------------------------------------------------------------------------------------
G|--------------------------------------------------------------------------------------------------
C|--------------------------------------------------------------------------------------------------

D|--13-13-13-13-13-13-12-12-12-12-12-12-------------------------------------12-------------12-------------
A|--------------------------------------12-12-12-12-12-12-12-12-12-12-12-12-------------------------------
F|--------------------------------------------------------------------------------------------------------
C|--------------------------------------------------------------------------------------------------------
G|--------------------------------------------------------------------------------------------------------
C|--------------------------------------------------------------------------------------------------------

D|--3--2--3--5--3--2--3--------------------
A|--------------------------------------5--
F|-----------------------------------------
C|-----------------------------------------
G|-----------------------------------------
C|-----------------------------------------

D|--
A|--
F|--
C|--
G|--
C|--

D|--
A|--
F|--
C|--
G|--
C|--

D|--
A|--
F|--
C|--
G|--
C|--

D|--
A|--
F|--
C|--
G|--
C|--

Song lyrics here
D|--
A|--
F|--
C|--
G|--
C|--

Paste any tab in acousterr's tab maker and we'll play it !!!
Now supports capo and sound effects for vibrato/pull-off/hammer/bends/mutes etc !!! Checkout help section
tabs and chords, guitar tabs, music transcription, music technology, deep learning, music information retrieval, transcribe into tabs & chords, chordify, music renditions, songsterr, reverbnation, tabulature, bollywood chords, ultimate guitar, yousician, guitar lessons, acoustic guitar, electric guitar, guitar tuner, 911 tabs