Guitar Tabs for Spaceboy

(/) Slide Up  (\) Slide Down  (h) Hammer On  (p) Pull Off  (b) Bend (r) Release (v) Vibrato (x) Muted

Tabs for Song : SPACEBOY
BPM : 200

INTRO (come when everyone else comes)
E|--0--0--0--0--12-12-11-11-
B|--0--0--0--0--12-12-11-11-            
G|--8--8--8--8--12-12-11-11-           x4               
D|--9--9--9--9--12-12-11-11-  
A|--9--9--9--9--10-10-9--9--
E|--7--7--7--7--------------


Verse1 ~ Computer wont let me go double time with notes, but do so (8 notes every four bars)

Go,           talk to me again
E|--------------------------------------------------
B|--------------------------------------------------
G|--------------------------------------------------
D|--------------------------------------------------
A|--------------10-10-9--9--------------10-10-9--9--
E|--7--7--7--7--------------7--7--7--7--------------

No, I can't complain
She won't look at me, She wont haze beneath her mode
Cause there is much more than...


Chorus1  (gain)
    I-                      can see                 when she wants to talk to me
E|--0--0--0--0--0--0--0--0--0--0--0--0--0--0--0--0--2--2--2--2--2--2--2--2--0--0--0--0--0--0--0--0--
B|--0--0--0--0--0--0--0--0--0--0--0--0--0--0--0--0--2--2--2--2--2--2--2--2--0--0--0--0--0--0--0--0--
G|--8--8--8--8--8--8--8--8--4--4--4--4--4--4--4--4--3--3--3--3--3--3--3--3--1--1--1--1--1--1--1--1--
D|--9--9--9--9--9--9--9--9--5--5--5--5--5--5--5--5--4--4--4--4--4--4--4--4--2--2--2--2--2--2--2--2--
A|--9--9--9--9--9--9--9--9--5--5--5--5--5--5--5--5--4--4--4--4--4--4--4--4--2--2--2--2--2--2--2--2--
E|--7--7--7--7--7--7--7--7--3--3--3--3--3--3--3--3--2--2--2--2--2--2--2--2--0--0--0--0--0--0--0--0--

You, you are, only salty once


INTRO

Verse2
So take me to the east,
To that long cold breeze
She wont take her eyes off me
Tree's won't gaze beneath their mode, 
cause there is much more than...


Chorus2      x2  (double time to whats tabbed)

OUTRO
E|--9--9--9--9--11-11-11-11-12-12-12-12-11-11-9--7--9--9--9--9--11-11-11-11-12-12-12-12-11-11-9--7--
B|--------------------------------------------------------------------------------------------------
G|--------------------------------------------------------------------------------------------------
D|--------------------------------------------------------------------------------------------------
A|--------------------------------------------------------------------------------------------------
E|--------------------------------------------------------------------------------------------------

E|--9--9--9--9--11-11-11-11-12-12-12-12-11-11-9--7--9--9--9--9--11-11-11-11-11-11-11-11-12-12-12-12-7-
B|--------------------------------------------------------------------------11-11-11-11-12-12-12-12-
G|--------------------------------------------------------------------------------------------------
D|--------------------------------------------------------------------------------------------------
A|--------------------------------------------------------------------------------------------------
E|--------------------------------------------------------------------------------------------------




Use manual mode to free up cursor. Paste any tab in acousterr tab maker and we'll play it !!!
tabs and chords, guitar tabs, music transcription, music technology, deep learning, music information retrieval, transcribe into tabs & chords, chordify, music renditions, songsterr, reverbnation, tabulature, bollywood chords, ultimate guitar, yousician, guitar lessons, acoustic guitar, electric guitar, guitar tuner, 911 tabs