Guitar Tabs for Soukous African Fingerstyle Guitar Lesson & Tab - Example 10

(/) Slide Up  (\) Slide Down  (h) Hammer On  (p) Pull Off  (b) Bend (r) Release (v) Vibrato (x) Muted

Tabs & Chords
BPM : 133.0
Check Track 2 for Chord Positions 

       E              D                    E                             A           D        
E|-----17-17-17----17-17-------16----------------------------------17----17-17----17-17-16----
B|--------------17----------19-------------------------17-17----17----17-------17----------19-
G|-----------------------------------19-19-18----18-16-------16-------------------------------
D|--------------------------------------------19----------------------------------------------
A|--------------------------------------------------------------------------------------------
E|--0-----------------------------------------------------------------------------------------

                   A                                      D                          A        
E|--16----------------------------------------17----17----17-17-16-16-------------------------
B|-----19-19----------------------17-17----17----17----17-------------19-19-19----------------
G|-----------19----18-18-18-18-16-------16-------------------------------------19-19-18----18-
D|--------------------------------------------------------------------------------------------
A|--------------------------------------------------------------------------------------------
E|--------------------------------------------------------------------------------------------

                                  D           A              E                 A           D  
E|--------------17----17----17-17-16----16----------------------------------------------------
B|-----17-17-17----17----17----------19----19----------------------17-17----------------------
G|--------------------------------------------19-19----18-18-18----------16-------18-18-18----
D|--------------------------------------------------19-------------------------19----------19-
A|--------------------------------------------------------------------------------------------
E|--------------------------------------------------------------------------------------------

                         A        E           A              D                 E              
E|--------------------------------------------------------------------------------------------
B|--------------------------------------------------------------------------------------------
G|-----------------------18-18-18-18-------------18-18-18----------------------18-18-18-18----
D|--19----19-19-16-19----------------18----18-19----------19-19----19-16----19-------------18-
A|--------------------------------------------------------------------------------------------
E|--------------------------------------------------------------------------------------------

             A        D              A           E        A              D                    A  
E|-----------------------------------------------------------------------------------------------
B|-----------------------------------------------------------------------------------------------
G|-----------18-18-------------------18-18-18----18-------------18-18-18----------------------18-
D|--18-18-------------19-19-16-19-19----------19----18----18-------------19----19-16-16-16-------
A|-----------------------------------------------------------------------------------------------
E|-----------------------------------------------------------------------------------------------

             E        A     
E|--------------------------
B|--------------------------
G|--18----------------------
D|-----19----18-18----19-19-
A|--------------------------
E|--------------------------

Guitar Tabs for Soukous African Fingerstyle Guitar Lesson & Tab - Example 10






       E              D                    E                             A           D        
E|-----0--------------2--------------------0-----------------------------0-----------2--------
B|-----0--------------3--------------------0-----------------------------2-----------3--------
G|-----1--------------2--------------------1-----------------------------2-----------2--------
D|-----2--------------0--------------------2-----------------------------2-----------0--------
A|-----2-----------------------------------2-----------------------------0--------------------
E|-----0-----------------------------------0--------------------------------------------------

                   A                                      D                          A        
E|-----------------0--------------------------------------2--------------------------0--------
B|-----------------2--------------------------------------3--------------------------2--------
G|-----------------2--------------------------------------2--------------------------2--------
D|-----------------2--------------------------------------0--------------------------2--------
A|-----------------0-----------------------------------------------------------------0--------
E|--------------------------------------------------------------------------------------------

                                  D           A              E                 A           D  
E|--------------------------------2-----------0--------------0-----------------0-----------2--
B|--------------------------------3-----------2--------------0-----------------2-----------3--
G|--------------------------------2-----------2--------------1-----------------2-----------2--
D|--------------------------------0-----------2--------------2-----------------2-----------0--
A|--------------------------------------------0--------------2-----------------0--------------
E|-----------------------------------------------------------0--------------------------------

                         A        E           A              D                 E              
E|-----------------------0--------0-----------0--------------2-----------------0--------------
B|-----------------------2--------0-----------2--------------3-----------------0--------------
G|-----------------------2--------1-----------2--------------2-----------------1--------------
D|-----------------------2--------2-----------2--------------0-----------------2--------------
A|-----------------------0--------2-----------0--------------------------------2--------------
E|--------------------------------0--------------------------------------------0--------------

             A        D              A           E        A              D                    A  
E|-----------0--------2--------------0-----------0--------0--------------2--------------------0--
B|-----------2--------3--------------2-----------0--------2--------------3--------------------2--
G|-----------2--------2--------------2-----------1--------2--------------2--------------------2--
D|-----------2--------0--------------2-----------2--------2--------------0--------------------2--
A|-----------0-----------------------0-----------2--------0-----------------------------------0--
E|-----------------------------------------------0-----------------------------------------------

             E        A     
E|-----------0--------0-----
B|-----------0--------2-----
G|-----------1--------2-----
D|-----------2--------2-----
A|-----------2--------0-----
E|-----------0--------------

tabs and chords, guitar tabs, music transcription, music technology, deep learning, music information retrieval, transcribe into tabs & chords, chordify, music renditions, songsterr, reverbnation, tabulature, bollywood chords, ultimate guitar, yousician, guitar lessons, acoustic guitar, electric guitar, guitar tuner, 911 tabs