Guitar Tabs for African Fingerstyle Guitar - A Polyrhythm Lesson With Downloadable Tab - Example 01

(/) Slide Up  (\) Slide Down  (h) Hammer On  (p) Pull Off  (b) Bend (r) Release (v) Vibrato (x) Muted

Tabs & Chords
BPM : 144.0
Check Track 2 for Chord Positions 

    A           D           A                             D        A           E           A  
E|--5-----0-----------------0-----------------------0--------------0-----------0--------------
B|--------------7-----------------------------------------7--7--------------------------------
G|--------------------7--7--------6-----7--7--6--------------------------6-----------7--------
D|-----------------7-----------7-----------------7--------------------------------------------
A|-----------------------------------------------------------------------------------------0--
E|--------------------------------------------------------------------------------------------

                D           A                                            D           A     E  
E|--5-----0-----------------0-----------0-----------------------0--0-----------------------0--
B|--------------7--------------------------------------------------------------7--------------
G|--------------------7-----------6-----------7--7--7--6--6--------------7-----------6--------
D|-----------------------------------------6-----------------7--------------7-----------------
A|--------------------------------------------------------------------------------------------
E|--------------------------------------------------------------------------------------------

             A     D           A           E        A        D           A           E        A  
E|-----------------------------------------------------------------------------------------------
B|--------------------------------------------------------------------------------------0--------
G|-----7-----------------7-----6--------------------------------------------------------------6--
D|-----------7-----7--7--------------7-----6-----------7-----7--0--0--0--------------------------
A|--------------------------------------------7-----7--------------------0-----------7-----------
E|-----------------------------------------------------------------------------7-----------------

             D           A           E        A                                   E           A  
E|-----------------------------------------------------------------------------------------------
B|--------------------------------------0-----------------------------------------------0--------
G|--------0--------7-----6--------------------6-----------------7-----6--------------------------
D|-----7-----7-----------------7--------------------7-----7-----------------7-----6--------------
A|-----------------------------------7-----------------------------------------------7--------0--
E|-----------------------------------------------------------------------------------------------

Guitar Tabs for African Fingerstyle Guitar - A Polyrhythm Lesson With Downloadable Tab - Example 01






    A           D           A                             D        A           E           A  
E|--0-----------2-----------0-----------------------------2--------0-----------0-----------0--
B|--2-----------3-----------2-----------------------------3--------2-----------0-----------2--
G|--2-----------2-----------2-----------------------------2--------2-----------1-----------2--
D|--2-----------0-----------2-----------------------------0--------2-----------2-----------2--
A|--0-----------------------0--------------------------------------0-----------2-----------0--
E|-----------------------------------------------------------------------------0--------------

                D           A                                            D           A     E  
E|--------------2-----------0--------------------------------------------2-----------0-----0--
B|--------------3-----------2--------------------------------------------3-----------2-----0--
G|--------------2-----------2--------------------------------------------2-----------2-----1--
D|--------------0-----------2--------------------------------------------0-----------2-----2--
A|--------------------------0--------------------------------------------------------0-----2--
E|-----------------------------------------------------------------------------------------0--

             A     D           A           E        A        D           A           E        A  
E|-----------0-----2-----------0-----------0--------0--------2-----------0-----------0--------0--
B|-----------2-----3-----------2-----------0--------2--------3-----------2-----------0--------2--
G|-----------2-----2-----------2-----------1--------2--------2-----------2-----------1--------2--
D|-----------2-----0-----------2-----------2--------2--------0-----------2-----------2--------2--
A|-----------0-----------------0-----------2--------0--------------------0-----------2--------0--
E|-----------------------------------------0-----------------------------------------0-----------

             D           A           E        A                                   E           A  
E|-----------2-----------0-----------0--------0-----------------------------------0-----------0--
B|-----------3-----------2-----------0--------2-----------------------------------0-----------2--
G|-----------2-----------2-----------1--------2-----------------------------------1-----------2--
D|-----------0-----------2-----------2--------2-----------------------------------2-----------2--
A|-----------------------0-----------2--------0-----------------------------------2-----------0--
E|-----------------------------------0--------------------------------------------0--------------

tabs and chords, guitar tabs, music transcription, music technology, deep learning, music information retrieval, transcribe into tabs & chords, chordify, music renditions, songsterr, reverbnation, tabulature, bollywood chords, ultimate guitar, yousician, guitar lessons, acoustic guitar, electric guitar, guitar tuner, 911 tabs