Guitar Tabs for African Guitar Lesson And Tab - Polyrhythmic Style - Example 02

(/) Slide Up  (\) Slide Down  (h) Hammer On  (p) Pull Off  (b) Bend (r) Release (v) Vibrato (x) Muted

Tabs & Chords
BPM : 125.0
Check Track 2 for Chord Positions 

    A        D              A        E           A           D           A           A        
E|--------------------------------------------------------------------------------------------
B|--------------------------------------------------------------------0-----------------------
G|-----------------------------------------------------------2-----2--------------------------
D|--------------0--0--0--------------------------2-----2--4--------------2-----2-----2-----2--
A|--0--0--0--0--------------0--0--0--2-----2--4-----------------------------------------------
E|--------------------------------------------------------------------------------------------

       D           A           A     D           A           A           F#m         A        
E|--------------------------------------------------------------------------------------------
B|--------------0-----------------------------0-----------------------------------------------
G|-----2-----2-----------------------2-----2-----------------------2-----------2-----0--------
D|-----------------2-----2-----2-----------------2-----2-----2--------2--4--4-----4-----2--2--
A|--------------------------------------------------------------------------------------------
E|--------------------------------------------------------------------------------------------

       E              A                                            E              A           
E|--------------------------------------------------------------------------------------------
B|--------------------------------------------------------------------------------------------
G|--2--------------------------2--------------2--2-----2--2-----------------------------2-----
D|-----2--2--2--6--2--2--2--2-----2-----4--4--------2--------2--2--6--2--6--2--2--2--2-----2--
A|--------------------------------------------------------------------------------------------
E|--------------------------------------------------------------------------------------------

                               E              A                                
E|-----------------------------------------------------------------------------
B|-----------------------------------------------------------------------------
G|--------2-----------2-----------------------------2--------------2-----------
D|--4--4-----4--2--2-----2-----2--2--6--2--2--2--2-----2--3--4--4-----4--2-----
A|--------------------------------------------------------------------------0--
E|-----------------------------------------------------------------------------

Guitar Tabs for African Guitar Lesson And Tab - Polyrhythmic Style - Example 02






    A        D              A        E           A           D           A           A        
E|--0--------2--------------0--------0-----------0-----------2-----------0-----------0--------
B|--2--------3--------------2--------0-----------2-----------3-----------2-----------2--------
G|--2--------2--------------2--------1-----------2-----------2-----------2-----------2--------
D|--2--------0--------------2--------2-----------2-----------0-----------2-----------2--------
A|--0-----------------------0--------2-----------0-----------------------0-----------0--------
E|-----------------------------------0--------------------------------------------------------

       D           A           A     D           A           A           F#m         A        
E|-----2-----------0-----------0-----2-----------0-----------0-----------2-----------0--------
B|-----3-----------2-----------2-----3-----------2-----------2-----------2-----------2--------
G|-----2-----------2-----------2-----2-----------2-----------2-----------2-----------2--------
D|-----0-----------2-----------2-----0-----------2-----------2-----------4-----------2--------
A|-----------------0-----------0-----------------0-----------0-----------4-----------0--------
E|-----------------------------------------------------------------------2--------------------

       E              A                                            E              A           
E|-----0--------------0--------------------------------------------0--------------0-----------
B|-----0--------------2--------------------------------------------0--------------2-----------
G|-----1--------------2--------------------------------------------1--------------2-----------
D|-----2--------------2--------------------------------------------2--------------2-----------
A|-----2--------------0--------------------------------------------2--------------0-----------
E|-----0-----------------------------------------------------------0--------------------------

                               E              A                                
E|-----------------------------0--------------0--------------------------------
B|-----------------------------0--------------2--------------------------------
G|-----------------------------1--------------2--------------------------------
D|-----------------------------2--------------2--------------------------------
A|-----------------------------2--------------0--------------------------------
E|-----------------------------0-----------------------------------------------

tabs and chords, guitar tabs, music transcription, music technology, deep learning, music information retrieval, transcribe into tabs & chords, chordify, music renditions, songsterr, reverbnation, tabulature, bollywood chords, ultimate guitar, yousician, guitar lessons, acoustic guitar, electric guitar, guitar tuner, 911 tabs