Guitar Tabs for African Fingerpicking Guitar Lesson & Tab - Regular Alternate Thumb Pattern - Example 09

(/) Slide Up  (\) Slide Down  (h) Hammer On  (p) Pull Off  (b) Bend (r) Release (v) Vibrato (x) Muted

Tabs & Chords
BPM : 144.0
Check Track 2 for Chord Positions 

    A                                   E        A           E        A                       
E|-----------------------0--0-----------------------------------------0--0--------------------
B|-----12-------0--0-----------------------------------------0--0-----------------------------
G|--14-------13-------------------------------------------------------------------------------
D|--------------------11-------11----------------------------------11-------11----------------
A|--------------------------------12-------------12----12----------------------12-------11----
E|--------------------------------------12----14-------------------------------------12----12-

                                                                   E           A                 
E|-----------------0-----------------------0--0-----------0--------0--0--------0-----------------
B|-----------------------12----------0-----------------------------------------------12----------
G|--------------------14----13----13-------------------------11----------11-------14----13----13-
D|-----------11-------------------------11-------11----------------------------------------------
A|-----12-12----------------------------------------12-------------------------------------------
E|--14-------------------------------------------------------------------------------------------

                                           E                 A              E           A        
E|-----0--0--0--------0-----0-----0--------------0--0--------------0-----------------------------
B|-----------------------------------------0--------------------------------0-----0--0-----------
G|--------------11-11----------------------------------------------------------------------------
D|-----------------------------------11----------------12----11-------------------------11----11-
A|-----------------------------------------------------------------------12----------------------
E|--------------------------------------------------------------------13-------------------------

       E              A           E           A        E                    A  
E|-----------0--------------------0--------------------------------0-----------
B|-----0-----------------------------0-----------------------0-----------------
G|-----------------------------------------------------------------------------
D|--------------12----11----11----------------------------------------12----11-
A|--------------------------------------12----12-------------------------------
E|-----------------------------------------12----12----12-12-------------------

Guitar Tabs for African Fingerpicking Guitar Lesson & Tab - Regular Alternate Thumb Pattern - Example 09






    A                                   E        A           E        A                       
E|--0-----------------------------------0--------0-----------0--------0-----------------------
B|--2-----------------------------------0--------2-----------0--------2-----------------------
G|--2-----------------------------------1--------2-----------1--------2-----------------------
D|--2-----------------------------------2--------2-----------2--------2-----------------------
A|--0-----------------------------------2--------0-----------2--------0-----------------------
E|--------------------------------------0--------------------0--------------------------------

                                                                   E           A                 
E|-----------------------------------------------------------------0-----------0-----------------
B|-----------------------------------------------------------------0-----------2-----------------
G|-----------------------------------------------------------------1-----------2-----------------
D|-----------------------------------------------------------------2-----------2-----------------
A|-----------------------------------------------------------------2-----------0-----------------
E|-----------------------------------------------------------------0-----------------------------

                                           E                 A              E           A        
E|-----------------------------------------0-----------------0--------------0-----------0--------
B|-----------------------------------------0-----------------2--------------0-----------2--------
G|-----------------------------------------1-----------------2--------------1-----------2--------
D|-----------------------------------------2-----------------2--------------2-----------2--------
A|-----------------------------------------2-----------------0--------------2-----------0--------
E|-----------------------------------------0--------------------------------0--------------------

       E              A           E           A        E                    A  
E|-----0--------------0-----------0-----------0--------0--------------------0--
B|-----0--------------2-----------0-----------2--------0--------------------2--
G|-----1--------------2-----------1-----------2--------1--------------------2--
D|-----2--------------2-----------2-----------2--------2--------------------2--
A|-----2--------------0-----------2-----------0--------2--------------------0--
E|-----0--------------------------0--------------------0-----------------------

tabs and chords, guitar tabs, music transcription, music technology, deep learning, music information retrieval, transcribe into tabs & chords, chordify, music renditions, songsterr, reverbnation, tabulature, bollywood chords, ultimate guitar, yousician, guitar lessons, acoustic guitar, electric guitar, guitar tuner, 911 tabs