Guitar Tabs for African Polyrhythm - Fingerstyle Guitar Lesson & Tab - Example 03

(/) Slide Up  (\) Slide Down  (h) Hammer On  (p) Pull Off  (b) Bend (r) Release (v) Vibrato (x) Muted

Tabs & Chords
BPM : 133.0
Check Track 2 for Chord Positions 

          D#m                           F#                                  C#             D#m
E|--6--------------------------------------------------------------------------------------6--
B|--------7-----------7--------------------7-----------------------------------------8--------
G|-----6-----6-----6-----------------------------------6-----6--6-----6--6-----6--6-----------
D|-----------------------------------------------8--------8--------8--------8-----------------
A|--------------------------6--6-----6--6-----------------------------------------------------
E|--------------------------------------------0-----------------------------------------------

                                  F#                                                          
E|-----------------------------------------9-----------9-----------9-----------9--9-----------
B|-----7-----------7-----------------7-----------9-----------9-----------9--------------9--8--
G|--6-----6-----6-----6-----6-----6-----------------------------------------------------------
D|--------------------------------------------------------------------------------------------
A|--------------------------------------------------------------------------------------------
E|--------------------------------------------------------------------------------------------

    D#m                              F#                                                       
E|-----6-----6-----9-----8--6--6--------------9-----------9-----------9-----------9-----------
B|--8--------------------------------7--------------9-----------9-----------9-----------9--8--
G|--------------------------------6-----------------------------------------------------------
D|--------------------------------------------------------------------------------------------
A|--------------------------------------------------------------------------------------------
E|--------------------------------------0-----------------------------------------------------

       D#m                                          F#                   C#       F#          
E|-----6--9--------6--------------------------------------------------------------------------
B|-----------7-----------7--------------------------7-----------------------------------------
G|--------------------6--------------------------------------6--6--------6--6-----6--6--6-----
D|--------------------------------------------------------8--------8-----------8-----------8--
A|--------------------------6--6--6--6-----6--6--6--------------------------------------------
E|-----------------------------------------------------0--------------------------------------

                   
E|-----------------
B|--------8-----7--
G|--6--6-----------
D|-----------------
A|-----------------
E|-----------------

Guitar Tabs for African Polyrhythm - Fingerstyle Guitar Lesson & Tab - Example 03






          D#m                           F#                                  C#             D#m
E|--------6-----------------------------2-----------------------------------4--------------6--
B|--------7-----------------------------2-----------------------------------6--------------7--
G|--------8-----------------------------3-----------------------------------6--------------8--
D|--------8-----------------------------4-----------------------------------6--------------8--
A|--------6-----------------------------4-----------------------------------4--------------6--
E|--------------------------------------2-----------------------------------------------------

                                  F#                                                          
E|--------------------------------2-----------------------------------------------------------
B|--------------------------------2-----------------------------------------------------------
G|--------------------------------3-----------------------------------------------------------
D|--------------------------------4-----------------------------------------------------------
A|--------------------------------4-----------------------------------------------------------
E|--------------------------------2-----------------------------------------------------------

    D#m                              F#                                                       
E|--6--------------------------------2--------------------------------------------------------
B|--7--------------------------------2--------------------------------------------------------
G|--8--------------------------------3--------------------------------------------------------
D|--8--------------------------------4--------------------------------------------------------
A|--6--------------------------------4--------------------------------------------------------
E|-----------------------------------2--------------------------------------------------------

       D#m                                          F#                   C#       F#          
E|-----6--------------------------------------------2--------------------4--------2-----------
B|-----7--------------------------------------------2--------------------6--------2-----------
G|-----8--------------------------------------------3--------------------6--------3-----------
D|-----8--------------------------------------------4--------------------6--------4-----------
A|-----6--------------------------------------------4--------------------4--------4-----------
E|--------------------------------------------------2-----------------------------2-----------

                   
E|-----------------
B|-----------------
G|-----------------
D|-----------------
A|-----------------
E|-----------------

tabs and chords, guitar tabs, music transcription, music technology, deep learning, music information retrieval, transcribe into tabs & chords, chordify, music renditions, songsterr, reverbnation, tabulature, bollywood chords, ultimate guitar, yousician, guitar lessons, acoustic guitar, electric guitar, guitar tuner, 911 tabs