Ukulele Tabs for Soniyo Raaz 2

Soniyo Ukuelel Tabs

(baby stand by my side)
A|-----------------------------------
E|--4-----5-----7-----4--4--4--5-----
C|-----------------------------------
G|-----------------------------------


come and be my guiding ligth
A|-----------------------------------------
E|-----7-----5--7------7/9--7--5--4--5-----
C|-----------------------------------------
G|-----------------------------------------

i'l be what you
A|-----------------------------------
E|-----4-----5-----7--7--4--4--4--5--
C|-----------------------------------
G|-----------------------------------

i'l give all
A|--------------------------------------
E|-----7--7--5--7------7/9-----7--5--4--5--
C|--------------------------------------
G|--------------------------------------


soniyo o soniyooo...
A|-----4--7---7/9--------7--7--9---7/9---7\-5\4-----
E|--------------------------------------------------
C|--------------------------------------------------
G|--------------------------------------------------


tumhe dekhta hun
A|-----------5-----4--------------------
E|-----5--7-----------5-----7-----5--7--
C|--------------------------------------
G|--------------------------------------

toh sochta hun
A|--5-----4--------------------------------------
E|--------------5-----4-----5------5/7------7\5--
C|-----------------------------------------------
G|-----------------------------------------------


tum jo....
A|-----4--7---7/9--------9---9\-7\5-----
E|--------------------------------------
C|--------------------------------------
G|--------------------------------------

mera saath do...
A|-----7--7-----7--9---7/9-----9---7\-5\4--
E|-----------------------------------------
C|-----------------------------------------
G|-----------------------------------------


saare gam bhulake
A|-----------5-----4--------------------
E|-----5--7-----------5-----7-----5--7--
C|--------------------------------------
G|--------------------------------------


jilun mushkurake bas yahin
A|--5-----4--------------------------------------
E|--------------5-----4-----5------5/7------7\5--
C|-----------------------------------------------
G|-----------------------------------------------



tu dede mera saath
A|-----------------------------------------------------
E|-----5--5--4--5--7-----5-----5--5--4--5--7-----5--5--
C|-----------------------------------------------------
G|-----------------------------------------------------


chahe jo bhi ho baat..
A|--------------------------
E|--5--7---7/9--10-9-----5--
C|--------------------------
G|--------------------------

tu bas dede
A|-----------------------------------------------------
E|-----4--5---5/7------7/9---7/10----9-----4------4/5--
C|-----------------------------------------------------
G|-----------------------------------------------------























tabs and chords, guitar tabs, music transcription, music technology, deep learning, music information retrieval, transcribe into tabs & chords, chordify, music renditions, songsterr, reverbnation, tabulature, bollywood chords, ultimate guitar, yousician, guitar lessons, acoustic guitar, electric guitar, guitar tuner, 911 tabs