Guitar Tabs for Main Agar Samne - Raaz Tabs

(/) Slide Up  (\) Slide Down  (h) Hammer On  (p) Pull Off  (b) Bend (r) Release (v) Vibrato (x) Muted

Tabs for Song : Main Agar Samne

Intro
E|--------------------------------------------------------------------------------
B|--11-10-8-----------------10-8--11-10-8--11-10-8-----------------10-8--11-10-8--
G|-----------10-8--7--8--10-------------------------10-8--7--8--10----------------
D|--------------------------------------------------------------------------------
A|--------------------------------------------------------------------------------
E|--------------------------------------------------------------------------------

Intro 
E|-----------11-10-11-10-------------------------------------------
B|--8--10-11-------------13-11-13-------10-13-11-13-11-10-11-10----
G|--------------------------------10-12-------------------------12-
D|-----------------------------------------------------------------
A|-----------------------------------------------------------------
E|-----------------------------------------------------------------

Intro
E|-----------------------------------------
B|--11-10-8-----------------10-8--11-10-8--
G|-----------10-8--7--8--10----------------
D|-----------------------------------------
A|-----------------------------------------
E|-----------------------------------------

Main Agar Saamne Aa Bhi Jaaya Karoon
E|--------------------------8-----------------
B|--------8--8--8--8--8--8-----10-8--10-8-----
G|--7--7-----------------------------------10-
D|--------------------------------------------
A|--------------------------------------------
E|--------------------------------------------

Laazmi Hai Ki Tum Mujhse Parda Karo
E|--------------------------------------------------
B|--10-11-10-8--10-10-11-10-8--10-10-11-13-11-8--10-
G|--------------------------------------------------
D|--------------------------------------------------
A|--------------------------------------------------
E|--------------------------------------------------

Apni Shaadi Ke Din Ab Nahin Door Hai
E|--------------------------8-----------------
B|--------8--8--8--8--8--8-----10-8--10-8-----
G|--7--7-----------------------------------10-
D|--------------------------------------------
A|--------------------------------------------
E|--------------------------------------------

Main Bhi Tadpa Karoon Tum Bhi Tadpa Karo
E|--------------------------------------------------
B|--10-11-10-8--10-10-11-10-8--10-10-11-13-11-8--10-
G|--------------------------------------------------
D|--------------------------------------------------
A|--------------------------------------------------
E|--------------------------------------------------

Bada Mushkil Hai Yeh Mera Dil Hai (2Times)
E|--10-10-10-11-10----10-------10-10-10-11-10----10-------
B|-----------------13----13-11----------------13----13-11-
G|--------------------------------------------------------
D|--------------------------------------------------------
A|--------------------------------------------------------
E|--------------------------------------------------------

Tum Hi Kaho Kaise Mein Chup Rahoon
E|--11-11-11----11----------------------------------------------
B|-----------13----13-10-------10-11-13-10-10/11-10-13-11-10----
G|-----------------------12-10-------------------------------12-
D|--------------------------------------------------------------
A|--------------------------------------------------------------
E|--------------------------------------------------------------

Main Agar Saamne Aa Bhi Jaaya Karoon
E|--------------------------8-----------------
B|--------8--8--8--8--8--8-----10-8--10-8-----
G|--7--7-----------------------------------10-
D|--------------------------------------------
A|--------------------------------------------
E|--------------------------------------------

Laazmi Hai Ki Tum Mujhse Parda Karo
E|--------------------------------------------------
B|--10-11-10-8--10-10-11-10-8--10-10-11-13-11-8--10-
G|--------------------------------------------------
D|--------------------------------------------------
A|--------------------------------------------------
E|--------------------------------------------------
tabs and chords, guitar tabs, music contests, music covers, songsterr, reverbnation, renditions, tabulature, bollywood chords, ultimate guitar, yousician, guitar lessons, torrins, fender, gibson, acoustic guitar, electric guitar, youtube covers, gootar, guitar tuner, A-Z tabs, 911 tabs