Guitar Tabs for Soniyo O Soniyo - Raaz 2 Tabs

(/) Slide Up  (\) Slide Down  (h) Hammer On  (p) Pull Off  (b) Bend (r) Release (v) Vibrato

Tabs for Song : Soniyo O Soniyo

Soniyo O soniyo
E|--------------------------------------------
B|-----5--5--7--5--5--7--5--7--5-----5--------
G|--6-----------------------------7-----7--6--
D|--------------------------------------------
A|--------------------------------------------
E|--------------------------------------------

Tumhein Dekhta hoon to sochta hoon bas yehi
E|--------------------------------------------------
B|--------------------------------------------------
G|-----4--7--6-----------4--7--6--------4---6p4-----
D|--7-----------7--7--7-----------7--7-----------7--
A|--------------------------------------------------
E|--------------------------------------------------

Tum jo mera saath do
E|--------------------------------------------------------
B|-----5--5--7---5/7--5-----5--5--7--5--7--5-----5--------
G|--6--------------------6--------------------7-----7--6--
D|--------------------------------------------------------
A|--------------------------------------------------------
E|--------------------------------------------------------

Sare gum bhola ke Jee lu muskuraake zindagi
E|--------------------------------------------------
B|--------------------------------------------------
G|-----4--7--6-----------4--7--6--------4---6p4-----
D|--7-----------7--7--7-----------7--7-----------7--
A|--------------------------------------------------
E|--------------------------------------------------

Tu dede mera saath tham le haath Chahe jo bhi ho baat
E|-----------------------------------------------------------
B|-----------------------------------------------------------
G|-----------4-----------------4-----------4--6--7---4p6-----
D|--7--6--7-----7--7--7--6--7-----7--7--7-----------------7--
A|-----------------------------------------------------------
E|-----------------------------------------------------------

Tu bas de de mera saath
E|-----------------------------------------
B|-----------------------------------------
G|--------4--4--6--4--7--6---4h6-----------
D|--7--6--------------------------7--6--7--
A|-----------------------------------------
E|-----------------------------------------
tabs and chords, guitar tabs, music contests, music covers, songsterr, reverbnation, renditions, tabulature, bollywood chords, ultimate guitar, yousician, guitar lessons, torrins, fender, gibson, acoustic guitar, electric guitar, youtube covers, gootar, guitar tuner, A-Z tabs, 911 tabs