Guitar Tabs for Soniyo

baby come stand
E|--------------------------------------------------------------------------------
B|--9-----10----12----9--9--9--10----12----10-12----12/14----12-10-9--10----10/12-
G|--------------------------------------------------------------------------------
D|--------------------------------------------------------------------------------
A|--------------------------------------------------------------------------------
E|--------------------------------------------------------------------------------


i'll be what you....
E|-----------------------------------------------------------------------
B|--9-----10----12-12----9--9--9--10----12-12-10-12-12/14----12-10-9--10-
G|-----------------------------------------------------------------------
D|-----------------------------------------------------------------------
A|-----------------------------------------------------------------------
E|-----------------------------------------------------------------------


soniyo....
E|--9--12-12/14----12-12-14----12/14----14----14\12\10\9--
B|--------------------------------------------------------
G|--------------------------------------------------------
D|--------------------------------------------------------
A|--------------------------------------------------------
E|--------------------------------------------------------


Tumhe dekhta hun...
E|--------10----9-----------------------10----9--------------------------------------
B|--10-12----------10----12----10-12-------------10----12----10----10/12----12\10----
G|-----------------------------------------------------------------------------------
D|-----------------------------------------------------------------------------------
A|-----------------------------------------------------------------------------------
E|-----------------------------------------------------------------------------------


tu dede
E|--------------------------------------------------------------------------------------
B|--10-10----9--10-12-10----10----10----9--10-12-10----10-12----12/14----15----14----10-
G|--------------------------------------------------------------------------------------
D|--------------------------------------------------------------------------------------
A|--------------------------------------------------------------------------------------
E|--------------------------------------------------------------------------------------


tu bas
E|--------------------------------------------------------------------
B|-----10-9--10/12----12/14----12/15----14----9---9/10----------------
G|--------------------------------------------------------------------
D|--------------------------------------------------------------------
A|--------------------------------------------------------------------
E|--------------------------------------------------------------------
tabs and chords, guitar tabs, music transcription, music technology, deep learning, music information retrieval, transcribe into tabs & chords, chordify, music renditions, songsterr, reverbnation, tabulature, bollywood chords, ultimate guitar, yousician, guitar lessons, acoustic guitar, electric guitar, guitar tuner, 911 tabs