Guitar Tabs for Jo Bhi Kasmein - Raaz Tabs

(/) Slide Up  (\) Slide Down  (h) Hammer On  (p) Pull Off  (b) Bend (r) Release (v) Vibrato (x) Muted

Tabs for Song : Jo Bhi Kasmein

Jo Bhi Kasmein Khaayi Thi Humne Vaada Kiya Tha Jo Milke
E|--------8--7-----7--------------------8--7-----7-----------------
B|-----10-------10----10-10-10-10----10-------10----10-10-10-8-----
G|--9-----------------------------9-----------------------------10-
D|-----------------------------------------------------------------
A|-----------------------------------------------------------------
E|-----------------------------------------------------------------

Tune Hi Jeevan Mein Laaya Tha Mere Savera
E|--------------------------------------------------------
B|--10-12-10-10-12-10-10-12-10-10-10/12-10-8-----8--------
G|--------------------------------------------10----10-10-
D|--------------------------------------------------------
A|--------------------------------------------------------
E|--------------------------------------------------------

Kya Tumhe Yaad Hai Kya Tumhe Yaad Hai Kya Tumhe Yaad Hai
E|-----------------------------------------------------------------------------------
B|--12/13-12-12-10-10-10-10-12/13-12-12-10-10-12-10-8--8-----12/13-12-12-10-10-10-10-
G|--------------------------------------------------------10-------------------------
D|-----------------------------------------------------------------------------------
A|-----------------------------------------------------------------------------------
E|-----------------------------------------------------------------------------------

Din Woh Bade Haseen The Raatein Bhi Khush Naseeb Thi
E|--------8--7-----7--------------------8--7-----7-----------------
B|-----10-------10----10-10-10-10----10-------10----10-10-10-8-----
G|--9-----------------------------9-----------------------------10-
D|-----------------------------------------------------------------
A|-----------------------------------------------------------------
E|-----------------------------------------------------------------

Tune Hi Jeevan Mein Laaya Tha Mere Savera
E|--------------------------------------------------------
B|--10-12-10-10-12-10-10-12-10-10-10/12-10-8-----8--------
G|--------------------------------------------10----10-10-
D|--------------------------------------------------------
A|--------------------------------------------------------
E|--------------------------------------------------------

Kya Tumhe Yaad Hai Kya Tumhe Yaad Hai Kya Tumhe Yaad Hai
E|--------------------------------------------------------------------------------------
B|--12/13-12-12-10-10-10-10-12/13-12-12-10-10-12-10-10-8--8-----12/13-12-12/15-10-10-10-
G|-----------------------------------------------------------10-------------------------
D|--------------------------------------------------------------------------------------
A|--------------------------------------------------------------------------------------
E|--------------------------------------------------------------------------------------

Music (2 Times)
E|--------12-10----------------------------10-------------------------
B|--10-13-------12-10-12-10-12-10-------12----13-12-12-13-12-10-12-10-
G|--------------------------------12-12-------------------------------
D|--------------------------------------------------------------------
A|--------------------------------------------------------------------
E|--------------------------------------------------------------------

Jaage Jaage Rehte The Khoye Khoye Rehte The Karte The Pyaar Ki Baatein
E|-----------------------------------------------------------------------8--8--7--7--
B|-----------8-----------------------8-----------------------8-----------------------
G|--9--9--10----10-9--9--9--9--9--10----10-9--9--9--9--9--10----10-9--9--------------
D|-----------------------------------------------------------------------------------
A|-----------------------------------------------------------------------------------
E|-----------------------------------------------------------------------------------

Kabhi Tanhaayi Mein Kabhi Purvaayi Mein Hoti Thi Roz Mulaakaatein
E|--7--7--8--10-8--7--7--7--7--7--8--10-8--7--7--7--7--7--8--10-8--7--7--8--7--------
B|-----------------------------------------------------------------------------10-10-
G|-----------------------------------------------------------------------------------
D|-----------------------------------------------------------------------------------
A|-----------------------------------------------------------------------------------
E|-----------------------------------------------------------------------------------

Teri In Baahon Mein Teri Panahon Mein Maine Har Lamha Guzaara
E|-----------------------------------------------------------------------8--8--7--7--
B|-----------8-----------------------8-----------------------8-----------------------
G|--9--9--10----10-9--9--9--9--9--10----10-9--9--9--9--9--10----10-9--9--------------
D|-----------------------------------------------------------------------------------
A|-----------------------------------------------------------------------------------
E|-----------------------------------------------------------------------------------

Tere Is Chehere Ko Chand Sunhere Ko Maine To Jigar Mein Utaara
E|--7--7--8--10-8--7--7--7--7--7--8--10-8--7--7--7--7--7--8--10-8--7--7--8--7--------
B|-----------------------------------------------------------------------------10-10-
G|-----------------------------------------------------------------------------------
D|-----------------------------------------------------------------------------------
A|-----------------------------------------------------------------------------------
E|-----------------------------------------------------------------------------------

Kitne Tere Karib Tha Main To Tera Naseeb Tha
E|--------8--7-----7--------------------8--7-----7-----------------
B|-----10-------10----10-10-10-10----10-------10----10-10-10-8-----
G|--9-----------------------------9-----------------------------10-
D|-----------------------------------------------------------------
A|-----------------------------------------------------------------
E|-----------------------------------------------------------------

Hoton Pe Rehta Tha Har Waqt Bas Naam Tera
E|--------------------------------------------------------
B|--10-12-10-10-12-10-10-12-10-10-10/12-10-8-----8--------
G|--------------------------------------------10----10-10-
D|--------------------------------------------------------
A|--------------------------------------------------------
E|--------------------------------------------------------

Kya Tumhe Yaad Hai Kya Tumhe Yaad Hai Kya Tumhe Yaad Hai
E|--------------------------------------------------------------------------------------
B|--12/13-12-12-10-10-10-10-12/13-12-12-10-10-12-10-10-8--8-----12/13-12-12/15-10-10-10-
G|-----------------------------------------------------------10-------------------------
D|--------------------------------------------------------------------------------------
A|--------------------------------------------------------------------------------------
E|--------------------------------------------------------------------------------------
tabs and chords, guitar tabs, music transcription, music technology, deep learning, music information retrieval, transcribe into tabs & chords, chordify, music renditions, songsterr, reverbnation, tabulature, bollywood chords, ultimate guitar, yousician, guitar lessons, acoustic guitar, electric guitar, guitar tuner, 911 tabs