Guitar Tabs for Pehla Nasha Pehla Khumar


(piano intro)
E|--5--5--8--8-----8--5-----8--8--------------5-----------------
B|-----------------------8-----------6--6--8-----------6--------
G|-----------------------------------------------7--------7-----
D|--------------------------------------------------------------
A|--------------------------------------------------------------
E|--------------------------------------------------------------

E|--------------------------------------
B|--------6-----------------------------
G|--7--7-----7-----5--5--5--------------
D|--------------------------7-----5-----
A|--------------------------------------
E|--------------------------------------

E|-----------------------------------------------------
B|-----------------------------------------------------
G|--------------------5--------------------------------
D|--5--5--7--8--7--5-----5--7--5--5-----7--5--3--3-----
A|-----------------------------------------------------
E|-----------------------------------------------------

E|-----------------------------------------------
B|-----10-8--6-----11-10-8--6--8--10-8--6--6-----
G|--5-----------5--------------------------------
D|-----------------------------------------------
A|-----------------------------------------------
E|-----------------------------------------------


Chahe Tum Kuchh Na Kaho
E|--5--------------------------5--6--5--------------
B|-----8--6--6--5--6--8-----------------8--6--6-----
G|-----------------------7--------------------------
D|--------------------------------------------------
A|--------------------------------------------------
E|--------------------------------------------------


Ke Sathi pyaar ka
E|--5---------8/10-10-------
B|-----8--6-----------8-----
G|--------------------------
D|--------------------------
A|--------------------------
E|--------------------------

Mene Chun Liya, Chun Liya, mene Chun Liya
E|--5--6--5--------------------5--------------------5-----------------
B|-----------8--6--6-----6--8-----8-----8--10-6--8-----8--------------
G|-----------------------------------------------------------10-9-----
D|--------------------------------------------------------------------
A|--------------------------------------------------------------------
E|--------------------------------------------------------------------

E|-----------------8--------------------------8--------------------
B|--6--6--6--5--6-----6--5--6--6--6-----5--6-----6--5--6--6--6-----
G|-----------------------------------------------------------------
D|-----------------------------------------------------------------
A|-----------------------------------------------------------------
E|-----------------------------------------------------------------

E|--------8-----------------------------5-----------------
B|--5--6-----6--5-----------------5--6-----6--8--8--8-----
G|-----------------7--7--7-----7--------------------------
D|--------------------------------------------------------
A|--------------------------------------------------------
E|--------------------------------------------------------

Pehla nasha pehla khumar
E|--5--8--8---8/10----8--------8--8-----
B|-----------------------6--8-----------
G|--------------------------------------
D|--------------------------------------
A|--------------------------------------
E|--------------------------------------

naya pyar h naya intzaar
E|--5--5--8--8--10-8--6--------------
B|-----------------------10-8--8-----
G|-----------------------------------
D|-----------------------------------
A|-----------------------------------
E|-----------------------------------

kar lu kya mein apna haal
E|-----------------6--5--5-----
B|--6--5--3--5--6--------------
G|-----------------------------
D|-----------------------------
A|-----------------------------
E|-----------------------------

Aye dile bekarar
E|-----------5-----------
B|-----5--6-----8--8-----
G|--7--------------------
D|-----------------------
A|-----------------------
E|-----------------------

Mere Dile Bekarar
E|-----------------6--------
B|--6--5--------------10-10-
G|--------7--9--10----------
D|--------------------------
A|--------------------------
E|--------------------------

Tu hi bata
E|--------------------
B|-----8--10----8-----
G|--10-------10-------
D|--------------------
A|--------------------
E|--------------------
tabs and chords, guitar tabs, music contests, music covers, songsterr, reverbnation, renditions, tabulature, bollywood chords, ultimate guitar, yousician, guitar lessons, torrins, fender, gibson, acoustic guitar, electric guitar, youtube covers, gootar, guitar tuner, A-Z tabs, 911 tabs