Guitar Tabs for Solo Mms

(/) Slide Up  (\) Slide Down  (h) Hammer On  (p) Pull Off  (b) Bend (r) Release (v) Vibrato (x) Muted

Tabs for Song : 
BPM : 200

Song lyrics here
E|-----------------------------------------------------------------------------------------------------------------
B|--------------------------------------------------------------------------------------------------11-10-11-10----
G|--------------------------------------------------------------------------------------10-10-10-10-------------12-
D|--------------------------------------8-----7--8--------------10-10-10-10-12-12-12-12----------------------------
A|--------------------------8--8--8--8--------------10-8-----------------------------------------------------------
E|--8--8--8--8--10-10-10-10----------------------------------------------------------------------------------------
Solo " 
E|--------------------------------------------------------------------------12\15-13h15-13----
B|--10-------------------------------------------------------------------------------------15-
G|-----12-10h12-9-----10-9--10----------9--10--9h10-9--------10-9-----------------------------
D|---------------------------------7\10----------------12-10----------------------------------
A|-----------------------------------------------------------------12-------------------------
E|--------------------------------------------------------------------------------------------

E|--------------------smmolos
B|--13h15-11-13-13----
G|--------------------
D|--------------------
A|--------------------
E|--------------------

Song lyrics here
E|--
B|--
G|--
D|--
A|--
E|--

Paste any tab in acousterr's tab maker and we'll play it !!!
Now supports capo and sound effects for vibrato/pull-off/hammer/bends/mutes etc !!! Checkout help section
tabs and chords, guitar tabs, music transcription, music technology, deep learning, music information retrieval, transcribe into tabs & chords, chordify, music renditions, songsterr, reverbnation, tabulature, bollywood chords, ultimate guitar, yousician, guitar lessons, acoustic guitar, electric guitar, guitar tuner, 911 tabs