Guitar Tabs for Solo Bukti - Virgoun

(/) Slide Up  (\) Slide Down  (h) Hammer On  (p) Pull Off  (b) Bend (r) Release (v) Vibrato (x) Muted

Tabs for Song : 

Song lyrics here
E|-----------------------------------------------------------------------------
B|-----------------------------------------------------------------------------
G|--------------7--9------9/11----11-11-11-9--7---7/9-----9--9--9--7--6---6/7--
D|--------7--9-----------------------------------------------------------------
A|--7--9-----------------------------------------------------------------------
E|-----------------------------------------------------------------------------

E|-----------------------------------------------------------------
B|-----------------------------------------------10-9--7--5---5/7--
G|---7p6-----------------------------6--7--9-----------------------
D|--------9--7--6--7--9---7h9--7-----------------------------------
A|-----------------------------------------------------------------
E|-----------------------------------------------------------------

E|-----------------------------12----------
B|-----9--10-10\12-12\14-12-------12b10-12-
G|--11-------------------------------------
D|-----------------------------------------
A|-----------------------------------------
E|-----------------------------------------



Paste any tab in acousterr's tab maker and we'll play it !!!
Now supports capo and sound effects for vibrato/pull-off/hammer/bends/mutes etc !!! Checkout help section
tabs and chords, guitar tabs, music transcription, music technology, deep learning, music information retrieval, transcribe into tabs & chords, chordify, music renditions, songsterr, reverbnation, tabulature, bollywood chords, ultimate guitar, yousician, guitar lessons, acoustic guitar, electric guitar, guitar tuner, 911 tabs