Guitar Tabs for Slady

(/) Slide Up  (\) Slide Down  (h) Hammer On  (p) Pull Off  (b) Bend (r) Release (v) Vibrato (x) Muted

Tabs & Chords
BPM : 89.0
Check Track 2 for Chord Positions 

    Bm                         Em                                                 Bm          
E|--------------------5--10-------0--------0-----0--------0--------------0--0-----0-----------
B|--------3-----0--2--3--10----3--------------------------------3-----------------------------
G|--------------------------------------------------------------------------------------2-----
D|--4--------0--------------------------------2-----2--------4-----2--0--------------------4--
A|-----------------------------------------------------------7--------------------------------
E|--------------------------------------6-----------------------------------------------------

                                        Em                                        Bm             
E|--------------------5-----------------0-----------------------0-----0-----------0--------------
B|-----------3--3--------3--3-----3--------------------------3--------------3--4--------------3--
G|--------------------------------------------------------------------------------------2--------
D|--------------------------------------------0--2--2-----4--------4-----0-----------------------
A|-----0--2--------------------------------------------------------------------------2-----------
E|-----------------------------------------------------------------------------------------------

                                              Em                                              
E|--------------------------------------------3-----0--------------0-----------0-----0--------
B|-----3--------3-----3-----3-----0--3--3--3-----------------------------------------------4--
G|--------------------------------------------------------------------------------------------
D|-----------------------------0--------------------------2--3--2-----------4-----0-----4-----
A|-----------2-----------------------------------------------9-----------0--------------------
E|--------------------------------------------------------------------------------------------

       Bm 
E|--------
B|--------
G|-----2--
D|--------
A|--------
E|--------

Guitar Tabs for Slady






    Bm                         Em                                                 Bm          
E|--2--------------------------0--------------------------------------------------2-----------
B|--3--------------------------0--------------------------------------------------3-----------
G|--4--------------------------0--------------------------------------------------4-----------
D|--4--------------------------2--------------------------------------------------4-----------
A|--2--------------------------2--------------------------------------------------2-----------
E|-----------------------------0--------------------------------------------------------------

                                        Em                                        Bm             
E|--------------------------------------0-----------------------------------------2--------------
B|--------------------------------------0-----------------------------------------3--------------
G|--------------------------------------0-----------------------------------------4--------------
D|--------------------------------------2-----------------------------------------4--------------
A|--------------------------------------2-----------------------------------------2--------------
E|--------------------------------------0--------------------------------------------------------

                                              Em                                              
E|--------------------------------------------0-----------------------------------------------
B|--------------------------------------------0-----------------------------------------------
G|--------------------------------------------0-----------------------------------------------
D|--------------------------------------------2-----------------------------------------------
A|--------------------------------------------2-----------------------------------------------
E|--------------------------------------------0-----------------------------------------------

       Bm 
E|-----2--
B|-----3--
G|-----4--
D|-----4--
A|-----2--
E|--------

tabs and chords, guitar tabs, music transcription, music technology, deep learning, music information retrieval, transcribe into tabs & chords, chordify, music renditions, songsterr, reverbnation, tabulature, bollywood chords, ultimate guitar, yousician, guitar lessons, acoustic guitar, electric guitar, guitar tuner, 911 tabs