Guitar Tabs for Sidi Hbibi

(/) Slide Up  (\) Slide Down  (h) Hammer On  (p) Pull Off  (b) Bend (r) Release (v) Vibrato

Tabs for Song : 

Song lyrics here
E|--------------------------
B|--7--7--7--7--------------
G|--------------9--7--9-----
D|--------------------------
A|--------------------------
E|--------------------------

Song lyrics here
E|--------------------------------
B|--------------------------------
G|--9--9--9--9--6--9--7--6--------
D|--------------------------9--7--
A|--------------------------------
E|--------------------------------

Now supports capo and sound effects for vibrato/pull-off/hammer/bends etc !!! Checkout help section

E|--------------------------------------
B|--------------------------------------
G|--------6--7--9--9--9--7--7--6--------
D|--7--9--------------------------7--9--
A|--------------------------------------
E|--------------------------------------

E|--------------------------------
B|--------------------------------
G|--9--9--7--9--6--9--7--6--------
D|--------------------------9--7--
A|--------------------------------
E|--------------------------------
tabs and chords, guitar tabs, music transcription, music technology, deep learning, music information retrieval, transcribe into tabs & chords, chordify, music renditions, songsterr, reverbnation, tabulature, bollywood chords, ultimate guitar, yousician, guitar lessons, acoustic guitar, electric guitar, guitar tuner, 911 tabs