Guitar Tabs for Shinjeky No Kyogy

(/) Slide Up  (\) Slide Down  (h) Hammer On  (p) Pull Off  (b) Bend (r) Release (v) Vibrato (x) Muted

Tabs for Song : 
BPM : 200

Song lyrics here 
E|--------0-----------------0--------4--0--2-----0-----------4--0--2-----------7-----3-----5-----2-----3-----0--
B|--2--2-----4--0--0--2--2-----4--0-----------4-----2--4--0-----------4--2--0-----------------------------------
G|--------------------------------------------------------------------------------------------------------------
D|--------------------------------------------------------------------------------------------------------------
A|--------------------------------------------------------------------------------------------------------------
E|--------------------------------------------------------------------------------------------------------------

E|-----2--------7--3-----5-----2-----3-----2-----0--------------3--------1--------------------------------------
B|--------3-----------------------------------------4--------3-----4-----------4-----0--2-----0-----------4-----
G|--------------------------------------------------------2-----------3--------------------3-----1--3-----------
D|-----------------------------------------------------2--------------------3--------------------------4--------
A|--------------------------------------------------------------------------------------------------------------
E|--------------------------------------------------------------------------------------------------------------

E|-----------------------------------------------------------------------------------------------------------
B|--0--2-----0-----------4--0--2-----0-----------4--0--2-----0-----------4--0--2-----0-----------4--0--2-----
G|--------3-----3--1--------------3-----1--3--------------3-----3--1--------------3-----1--3--------------3--
D|--------------------4-----------------------4-----------------------4-----------------------4--------------
A|-----------------------------------------------------------------------------------------------------------
E|-----------------------------------------------------------------------------------------------------------

E|--------------------------------------------------------------------------------------------------------------
B|--0-----------4--0--2-----0-----------4--0--2-----0-----------------------------------0-----------------------
G|-----3--1--------------3-----1--3--------------3-----3--1--0-----1--------1--1--1--3-----3--1--0-----0--1-----
D|-----------4-----------------------4--------------------------------------------------------------1--------1--
A|--------------------------------------------------------------------------------------------------------------
E|--------------------------------------------------------------------------------------------------------------

E|--------------------------------------------------------------------------------------------------------------0--
B|--------------0--------0--1--------2--2--2--2--------2--0--0--0-----0--2--2--2--2-----2--2--2--------1--2--2-----
G|--1--3-----3-----------------------------------1-----------------------------------2-----------------------------
D|--------4--------4-----------------------------------------------4-----------------------------------------------
A|-----------------------------------------------------------------------------------------------------------------
E|-----------------------------------------------------------------------------------------------------------------

E|--------------0-----------0--------------
B|--4--0--2--2-----4--0--2-----4--2--2-----
G|-----------------------------------------
D|-----------------------------------------
A|-----------------------------------------
E|-----------------------------------------

E|-----------------0--------------0--------------------0-----0--2--------4-----2-----------0--------------0-----------
B|--0-----0-----2-----4--0--2--2-----4-----0-----2--2-----4--------0-----------------2--2-----4--0--2--2-----4--0--2--
G|-----1--------------------------------------------------------------------------------------------------------------
D|--------------------------------------------------------------------------------------------------------------------
A|--------------------------------------------------------------------------------------------------------------------
E|--------------------------------------------------------------------------------------------------------------------

E|-----0-----------
B|--2-----4--2--2--
G|-----------------
D|-----------------
A|-----------------
E|-----------------

E|-----------------0--------------0--------------0--------------4--0--2-----0-----------------4--0--2-----0--------
B|--0-----0--2--2-----4--0--2--2-----4--0--0--2-----4--2--0--2-----------4-----------2--4--0-----------4-----4--2--
G|-----1-----------------------------------------------------------------------------------------------------------
D|-----------------------------------------------------------------------------------------------------------------
A|-----------------------------------------------------------------------------------------------------------------
E|-----------------------------------------------------------------------------------------------------------------



E|-----7--3--5--2--3-----0--2--------7--3--5--2--3-----2-----0--------7--3--5--2--------0--2-----7--3--5--2--
B|--0--------------------------3--------------------------------3-----------------3-----------3--------------
G|-----------------------------------------------------------------------------------------------------------
D|-----------------------------------------------------------------------------------------------------------
A|-----------------------------------------------------------------------------------------------------------
E|-----------------------------------------------------------------------------------------------------------

E|--3--2--0--------10-6--8--5--6-----3--5--1--10-6--8--5--6-----------รน
B|-----------3--------------------------------------------------3-----
G|--------------------------------------------------------------------
D|--------------------------------------------------------------------
A|--------------------------------------------------------------------
E|--------------------------------------------------------------------

Song lyrics here 


Use manual mode to free up cursor. Paste any tab in acousterr tab maker and we'll play it !!!
tabs and chords, guitar tabs, music transcription, music technology, deep learning, music information retrieval, transcribe into tabs & chords, chordify, music renditions, songsterr, reverbnation, tabulature, bollywood chords, ultimate guitar, yousician, guitar lessons, acoustic guitar, electric guitar, guitar tuner, 911 tabs