Guitar Tabs for Shalloiw

(/) Slide Up  (\) Slide Down  (h) Hammer On  (p) Pull Off  (b) Bend (r) Release (v) Vibrato (x) Muted

Tabs for Song : 
BPM : 200

Song lyrics here 
E|--0--0--0--------------------------------------------0--0--0-----------
B|-----------3--0-----1--1--1--1--1--1-----1--0-----------------3--0-----
G|-----------------------------------------------2-----------------------
D|-----------------------------------------------------------------------
A|-----------------------------------------------------------------------
E|-----------------------------------------------------------------------

E|-----------------------------------------------------------------------------------
B|--1--1--1--1--1--1-----1--0--------------------0-----3--3--3--3--1--0--------0-----
G|-----------------------------2-----0-----2--------------------------------2-----2--
D|-----------------------------------------------------------------------------------
A|-----------------------------------------------------------------------------------
E|-----------------------------------------------------------------------------------

E|-----------------------------------------------------------------------------------
B|--------------------0-----3--3--3--3--1--0--------0--------------0-----------3--0--
G|--0--0--0-----2--------------------------------2-----2--------0-----0-----2--------
D|-----------------------------------------------------------2-----------4-----------
A|-----------------------------------------------------------------------------------
E|-----------------------------------------------------------------------------------

E|-----------------------------------0--0--0-----------------------------------------
B|--------0-----------------------------------3--0--------1--1--1--1--1-----1--0-----
G|-----0-----0--------2--0-----------------------------0--------------------------2--
D|--2-----------0--4-----------------------------------------------------------------
A|-----------------------------------------------------------------------------------
E|-----------------------------------------------------------------------------------

E|-----0--0-----------------------------------------------------------------
B|-----------3--0--------------1--1--1--1-----1--0--------------------0-----
G|--0--------------2--0-----0-----------------------2-----0-----2-----------
D|--------------------------------------------------------------------------
A|--------------------------------------------------------------------------
E|--------------------------------------------------------------------------

E|--------------------------------------------------------------------------------------------
B|--3--3--3--3--1--0--------0-----------------3-----0-----------3--3--3--3--1--0--------0-----
G|-----------------------2-----2-----0--0--0-----------2--0--------------------------2-----2--
D|--------------------------------------------------------------------------------------------
A|--------------------------------------------------------------------------------------------
E|--------------------------------------------------------------------------------------------



E|--8--8--8--7-----5--5--7--5--3-----7--7--7--10-------5--7-----
B|--------------------------------------------------8--8-----------
G|-----------------------------------------------------------------
D|-----------------------------------------------------------------
A|-----------------------------------------------------------------
E|-----------------------------------------------------------------

E|--8--8--8--8--7-----5--5--7--5--3--3-----7--7--7--10-------5--7--
B|-----------------------------------------------------8--8--------
G|-----------------------------------------------------------------
D|-----------------------------------------------------------------
A|-----------------------------------------------------------------
E|-----------------------------------------------------------------

E|-----------------------------------------------------------3--3--3--3--2--2--3--2-----
B|--8--8--8--8--7--7--8--7-----8--8--8--8--7--7--5--5--5-----------------------------3--
G|--------------------------------------------------------------------------------------
D|--------------------------------------------------------------------------------------
A|--------------------------------------------------------------------------------------
E|--------------------------------------------------------------------------------------

E|--3--3--3--3-----------------------------------------------------------------------------------------------
B|--------------3--0--------------------------------------------0-----------------0-----------------------0--
G|-----------------------------------------0-----------------0-----0-----------------------------0-----0-----
D|-----------------------0--2-----4-----4-----4--2-----4--------------4-----2-----------4-----4-----4--------
A|-----------------------------------------------------------------------------------------------------------
E|-----------------------------------------------------------------------------------------------------------

E|--------
B|--0-----
G|--------
D|--------
A|--------
E|--------

Song lyrics here 
E|--
B|--
G|--
D|--
A|--
E|--

Use manual mode to free up cursor. Paste any tab in acousterr tab maker and we'll play it !!!
tabs and chords, guitar tabs, music transcription, music technology, deep learning, music information retrieval, transcribe into tabs & chords, chordify, music renditions, songsterr, reverbnation, tabulature, bollywood chords, ultimate guitar, yousician, guitar lessons, acoustic guitar, electric guitar, guitar tuner, 911 tabs