Settled Scores - Guitar Tabs

(/) Slide Up  (\) Slide Down  (h) Hammer On  (p) Pull Off  (b) Bend (r) Release (v) Vibrato (x) Muted

Settled Scores
(Lead Tracks)

Intro:
E|-----16b14----------------------------------------------------------------------------------
B|-----------16-14----------------------------------------------------------------------------
G|-----------------16-15-13-11-13-11-9--11p-9p11p-9p11p-9p13----------------------------------
D|------------------------------------------------------------9\-8/-9/11--9h11/13\11\9---4h6--
A|--------------------------------------------------------------------------------------------
D|--------------------------------------------------------------------------------------------


Verse 1: & Verse2: (Did you get back up when they pushed you down) (Your Motives alone)
E|-----------------------------------------------------
B|--9-----------7-----------5--------------------------
G|-----8-----------6-----------4-----------------------
D|---------6/9---------4/6---------2/11----9---8p9-----
A|-----------------------------------------------------
D|-----------------------------------------------------

Chours: (I went and settled the score, but have you setteled yours) 
E|--------------------------------------------------...--------------------------------------------------------------------------------
B|--------------------------------------------------------------------17-16----17-16-------------------------------------------------
G|--13-8---9p8------9p8--------------------------------------13-16----------16-------16\13-11h13b11----13-8---9p8------9p8-----------
D|--------------9-------9/11\-9h11/13p11\-9h11--(X2) xxxxx------------------------------------------------------------9--------9/11\-9h11/13p11\-9h11-------------
A|--11-6-----------------------------------------------------11-14-------------------------------------11-6--------------------------
D|--------------------------------------------------------------------------------------------------------------------------------

Riff: (And I was concerned for you)
E|--------------------------------------------------
B|--------------------------------------------------
G|--11h13b11-16-15-13-11----------------------------
D|-----------------------13-11--9h11b9---8h-9/11\9--
A|--------------------------------------------------
D|--------------------------------------------------

Bridge (Lead Chords): (Over and Over I tried to reach you)
E|--------------------------
B|--------------------------
G|--------11-11-9--8--4-----
D|--6--9--9--9--7--6--2---(X2)--
A|--6--9--9--9--7--6--2-----
D|--6--9--------------------

tabs and chords, guitar tabs, music transcription, music technology, deep learning, music information retrieval, transcribe into tabs & chords, chordify, music renditions, songsterr, reverbnation, tabulature, bollywood chords, ultimate guitar, yousician, guitar lessons, acoustic guitar, electric guitar, guitar tuner, 911 tabs