Guitar Tabs for Senden Daha Güzel

(/) Slide Up  (\) Slide Down  (h) Hammer On  (p) Pull Off  (b) Bend (r) Release (v) Vibrato (x) Muted

Tabs for Song : 

Song lyrics her


E|--------------------------------------2--4--2-----------------------------------------------------------------
B|--2--2--2--2--2-----4--5--4--------------------5--4--5--------2--2--2--2--2-----4--5--4-----2--1--2--1--------
G|--------------------------------------------------------------------------------------------------------2-----
D|--------------------------------------------------------------------------------------------------------------
A|--------------------------------------------------------------------------------------------------------------
E|--------------------------------------------------------------------------------------------------------------

E|--------------------------------------2--4--2--------------------------------------------------------------
B|--2--2--2--2--2-----4--5--4--------------------5--4--5--------2--2--2--2--2-----4--5--4-----2--1--2--1-----
G|--------------------------------------------------------------------------------------------------------2--
D|-----------------------------------------------------------------------------------------------------------
A|-----------------------------------------------------------------------------------------------------------
E|-----------------------------------------------------------------------------------------------------------

E|--------------------------------------4--2--4--2--------------2--4--5--4-----4--8--9--11-
B|--2--1--2--1--------6--5--6--5--3-----------------5--------5-----------------------------
G|--------------2--------------------------------------------------------------------------
D|-----------------------------------------------------------------------------------------
A|-----------------------------------------------------------------------------------------
E|-----------------------------------------------------------------------------------------

Song lyrics here

Paste any tab in acousterr's tab maker and we'll play it !!!
Now supports capo and sound effects for vibrato/pull-off/hammer/bends/mutes etc !!! Checkout help section
tabs and chords, guitar tabs, music transcription, music technology, deep learning, music information retrieval, transcribe into tabs & chords, chordify, music renditions, songsterr, reverbnation, tabulature, bollywood chords, ultimate guitar, yousician, guitar lessons, acoustic guitar, electric guitar, guitar tuner, 911 tabs