Guitar Tabs for Sakhiyaan

Jadon kalli behni aa Khayal ae sataunde ne
Baahar jaake sunda ae Phone kihde aunde ne
E|--------------------------------------------------------------------------------------------------------------------------------
B|---2/5--5--5--5--5--5--4-----5--4--7--5---4h-5p4-----------------------------5------------------------2/3--3--2--2--------------
G|-----------------------------------------------------6--6--4--4--4--4-----6-----6--4--------------------------------4---4/-6\2--
D|--------------------------------------------------------------------------------------7--7--7--7--------------------------------
A|--------------------------------------------------------------------------------------------------------------------------------
E|--------------------------------------------------------------------------------------------------------------------------------


Jadon kalli behni aa Khayal ae sataunde ne
Baahar jaake sunda ae Phone kihde aunde ne
E|--------------------------------------------------------------------------------------------------------
B|------2/5--5--5--5--5--5--4-----5--4--7--5---4h-5p4-----------------------------5-----------------------
G|--------------------------------------------------------6--6--4--4--4--4-----6-----6--4-----------------
D|-----------------------------------------------------------------------------------------7--7--7--7-----
A|--------------------------------------------------------------------------------------------------------
E|--------------------------------------------------------------------------------------------------------

Kari na please aisi gall kisey naal
Aaj kise naal ne jo kal kise naal
E|-----------------------------------------------------------------------------------------------
B|--2--2--2--2--2--2--2-----------------------------2--2--2--2--2--2--2--------------------------
G|-----------------------4--4-----4--4---4/-6\2--------------------------4--4-----4--4---4/-6\2--
D|-----------------------------------------------------------------------------------------------
A|-----------------------------------------------------------------------------------------------
E|-----------------------------------------------------------------------------------------------

Tere naal hona ae guzaara jatti da
Mera nahio hor koyi hal kise naal
E|--------------------------------------------------------------------------------------------
B|--2--2--2--2--2--2--2-----------------------------2--2--2--2--2--2--2-----------------------
G|-----------------------4--4-----4--4---4/-6\2--------------------------4--4-----4--4---4/6--
D|--------------------------------------------------------------------------------------------
A|--------------------------------------------------------------------------------------------
E|--------------------------------------------------------------------------------------------


Tu jihde ton roke
Main kamm na karaan dobara
E|-----------------------------------------------------------------------------------
B|-----------------------------------------------------------------------------------
G|-----2--2--2-----2------------4/6--4------4/6--4--2--2-----2--4--4--4--2--2-----2--
D|--------------------4--2-----------------------------------------------------------
A|-----------------------------------------------------------------------------------
E|-----------------------------------------------------------------------------------

Tere yaar bathere ne
Mera tu hi ae bas yaara
E|-----------------------------------------------------------------------------------
B|-----------------------------------------------------------------------------------
G|-----2--2--2-----2------------4/6--4------4/6--4--2--2-----2--4--4--4--2--2-----2--
D|--------------------4--2-----------------------------------------------------------
A|-----------------------------------------------------------------------------------
E|-----------------------------------------------------------------------------------

Tere yaar bathere ne
Mera tu hi ae bas yaara
E|--------------------------------------------------------------------------------------
B|--------------------------------------------------------------------------------------
G|-----2--2--2-----2------------4/6--4------4/6--4--2--2-----2--4---4/6--4--2--------2--
D|--------------------4--2-----------------------------------------------------4--------
A|--------------------------------------------------------------------------------------
E|--------------------------------------------------------------------------------------

na naa na naa...
E|-----------------------------------------------------------
B|-----------------2---------3/5-----------------------------
G|--------2--2--4-----------------4------4/6-----------------
D|--4--4---------------------------------------7/9--7--7-----
A|-----------------------------------------------------------
E|-----------------------------------------------------------

na naa na naa...
E|-----------------------------------------------------------------------------------------------
B|-----------------2---------3/5-----------------------------------------------------------------
G|--------2--2--4-----------------4------4/6------------------6h-7p6-----------------------------
D|--4--4---------------------------------------7/9--7--7--------------9---7h-9p7-----7--9-----7--
A|--------------------------------------------------------------------------------9--------------
E|-----------------------------------------------------------------------------------------------

tabs and chords, guitar tabs, music transcription, music technology, deep learning, music information retrieval, transcribe into tabs & chords, chordify, music renditions, songsterr, reverbnation, tabulature, bollywood chords, ultimate guitar, yousician, guitar lessons, acoustic guitar, electric guitar, guitar tuner, 911 tabs