Guitar Tabs for Tujhe Kitna Chahne Lage

Dil ka dariya beh hi gaya
E|-----------------------------------------------
B|-----5-----4-----------------------------------
G|--------------6--4---6/8------3/4--6--4--4-----
D|-----------------------------------------------
A|-----------------------------------------------
E|-----------------------------------------------

Ishq ibadat ban hi gaya
E|-----------------------------------------------
B|-----------------------------------4-----------
G|---6/11-11-11-11\4--4--4------4/6-----6--6-----
D|-----------------------------------------------
A|-----------------------------------------------
E|-----------------------------------------------

Khud ko mujhe tu sonp de
E|--------------------------------------------------
B|-----5-----4--------------------------------------
G|--------------6--4---6/8------3/4--6--4-----------
D|------------------------------------------6/9-----
A|--------------------------------------------------
E|--------------------------------------------------

Meri zaroorat tu ban gaya
E|-----------------------------------------------------------------------
B|-----------------------------------4-----------------------------------
G|---6/11-11-11-11\4--4--4------4/6-----6--6--4---4h-6p4---3h-4p3--1-----
D|-----------------------------------------------------------------------
A|-----------------------------------------------------------------------
E|-----------------------------------------------------------------------

Baat dil ki nazron ne ki
E|--------------------------------------------
B|--4--5---7/9--9------9/11-11----9--7--7-----
G|--------------------------------------------
D|--------------------------------------------
A|--------------------------------------------
E|--------------------------------------------

Sach keh raha teri kasam
E|-----------------------------------------------------------------------
B|---5/7--5--4--2---4/5------7/9--7--5--4--4-----4---4h-5p4--4-----------
G|--------------------------------------------------------------6--6-----
D|-----------------------------------------------------------------------
A|-----------------------------------------------------------------------
E|-----------------------------------------------------------------------

Tere bin na lenge ik bhi dam
E|--------------------------------------------------------------
B|--------------------------------------------------------------
G|-----4--6---6/8---6\4--4--6---6/9-----8--6--6------6/8--6-----
D|--------------------------------------------------------------
A|--------------------------------------------------------------
E|--------------------------------------------------------------

Tujhe kitna chahne lage hum
E|-----------------------------------------------
B|-----------------------------------------------
G|--4--6---6/8---6\4--4--6------6/9--6--4--4-----
D|-----------------------------------------------
A|-----------------------------------------------
E|-----------------------------------------------

Tere saath ho jayenge khatam
E|-----------------------------------------------------------------------
B|-----------------------------------------------------------------------
G|-----4--6---6/8---6\4--4--6------6/9--8--6--6-----8---6h-8p6-----------
D|--------------------------------------------------------------9--8-----
A|-----------------------------------------------------------------------
E|-----------------------------------------------------------------------

Tujhe kitna chahne lage hum
E|-----------------------------------------------
B|------------------------------7\4--2-----------
G|--4--6---6/8---6\4-----4--4-----------4--4-----
D|-----------------------------------------------
A|-----------------------------------------------
E|-----------------------------------------------
tabs and chords, guitar tabs, music transcription, music technology, deep learning, music information retrieval, transcribe into tabs & chords, chordify, music renditions, songsterr, reverbnation, tabulature, bollywood chords, ultimate guitar, yousician, guitar lessons, acoustic guitar, electric guitar, guitar tuner, 911 tabs