Guitar Tabs for Bekhayali

humming
E|--------------------------------------------------------------------------
B|--------------------------------------------------------------------------
G|--2-----5--4-----2--2--2-----5--4-----2--2--2-----5---4h-5p4------2/4-----
D|--------------------------------------------------------------5-----------
A|--------------------------------------------------------------------------
E|--------------------------------------------------------------------------

Bekhayali mein bhi tera hi khayaal aaye
E|-----------------------------------------------------------------------
B|-----------------3--------------------3--------------------------------
G|--2-----5--4-----------2-----5--4-----------2-----5--4---------2/4-----
D|-----------------------------------------------------------5-----------
A|-----------------------------------------------------------------------
E|-----------------------------------------------------------------------

Kyun bichhadna hai zaroori ye sawaal aaye
E|--------8--7-----10----------8--7-----10----------8---7h-8p7--------------
B|---8/10-----------------8/10-----------------8/10-------------8--10/12----
G|--------------------------------------------------------------------------
D|--------------------------------------------------------------------------
A|--------------------------------------------------------------------------
E|--------------------------------------------------------------------------

Teri nazdeekiyon ki khushi behisaab thi
E|--------------------12-10----------------12-10----------------12-10h12p10----------------
B|--12/13-12-10-10-------------10-10-10-------------10-10-10----------------10----10/12----
G|-----------------------------------------------------------------------------------------
D|-----------------------------------------------------------------------------------------
A|-----------------------------------------------------------------------------------------
E|-----------------------------------------------------------------------------------------

Hisse mein faasle bhi tere bemisaal aaye
E|--------------------12-10----------------12-10----------------12-10h12p10-------------------
B|--12/13-12-10-10-------------10-10-10-------------10-10-10----------------12h13p12----10----
G|--------------------------------------------------------------------------------------------
D|--------------------------------------------------------------------------------------------
A|--------------------------------------------------------------------------------------------
E|--------------------------------------------------------------------------------------------

Main jo tumse door hoon
Kyun door main rahoon
E|-----------------------------------------------------------
B|-----------------------------------------------------------
G|---4/5-----5--5--5--4--5--4--5-----5--5--5--4--5--4---5/7--
D|-----------------------------------------------------------
A|-----------------------------------------------------------
E|-----------------------------------------------------------

Tera guroor hoon
E|-----------------------------------------------
B|-----------------------------------------------
G|--7--7--7--5--7--5---7/9--7--5---5h-7p5--5--4--
D|-----------------------------------------------
A|-----------------------------------------------
E|-----------------------------------------------

Aa tu faasla mita
Tu khwaab sa mila
E|-----------------------------------------------------------
B|-----------------------------------------------------------
G|---4/5-----5--5--5--4--5--4--5-----5--5--5--4--5--4---5/7--
D|-----------------------------------------------------------
A|-----------------------------------------------------------
E|-----------------------------------------------------------

Kyun khwaab tod doon oo..
E|--------------------------------------------------------------7--8---7h-8p7-----------
B|--------------------------------------8------8/10-10-10-10-------------------8--------
G|--7--7--7--5--7--5---7/9--9--9--9--9--------------------------------------------9-----
D|--------------------------------------------------------------------------------------
A|--------------------------------------------------------------------------------------
E|--------------------------------------------------------------------------------------


E|-----------------------------------------------
B|--------8--8--10-8--10-8---8h10p8--8-----------
G|---7/9--------------------------------10-9-----
D|-----------------------------------------------
A|-----------------------------------------------
E|-----------------------------------------------


E|--------------------------7--8---7h-8p7-----------10----8--10/12-12-12-12-10h12p10-8--10/12----
B|--------8---8/10-10-10-10----------------8--10-10----------------------------------------------
G|---7/9-----------------------------------------------------------------------------------------
D|-----------------------------------------------------------------------------------------------
A|-----------------------------------------------------------------------------------------------
E|-----------------------------------------------------------------------------------------------


Raatein dengi bata
E|-----------------------------------------------------
B|-----------------------------------------------------
G|-----5--5---4h-5p4-----------5--5---4h-5p4-----------
D|---------------------5/7---------------------5/7-----
A|-----------------------------------------------------
E|-----------------------------------------------------

Neendon mein teri hi baat hai
E|--------------------3--3--------
B|---3/5--5--3--3--5--------5--3--
G|--------------------------------
D|--------------------------------
A|--------------------------------
E|--------------------------------

Dard tumhaara badan mein mere
E|--------------------------------------------
B|--------------------------------------------
G|--------------------4--4--4---4h-5p4--------
D|--7--7--7--7--5-----------------------7-----
A|--------------------------------------------
E|--------------------------------------------

Zeher ki tarah utar raha hai
E|--------------------------------------------
B|--------------------------------------------
G|--------------------4--4--4---4h-5p4--------
D|--7--7--7--7--5-----------------------7-----
A|--------------------------------------------
E|--------------------------------------------

tabs and chords, guitar tabs, music transcription, music technology, deep learning, music information retrieval, transcribe into tabs & chords, chordify, music renditions, songsterr, reverbnation, tabulature, bollywood chords, ultimate guitar, yousician, guitar lessons, acoustic guitar, electric guitar, guitar tuner, 911 tabs