Guitar Tabs for Rikas Theme

(/) Slide Up  (\) Slide Down  (h) Hammer On  (p) Pull Off  (b) Bend (r) Release (v) Vibrato (x) Muted

Tabs for Song : 
BPM : 118

Song lyrics here 
E|--------7-----------------------------------------------7-----------------------10-7--------------------7-----------------------------------------------7-----------------------------------------------------------------------------------------
B|-----------10----------------10----------------------------10----8-----------10----------------------------10----8-----------10\7--------------------------10-------------------------------------------------------------------------------------
G|-----9-----------------11-12----11-9-----------------9-----------------11-12-------------------------9-----------------11-12-----------7\4-----------9-----------------11----11-9-----------------------------------------------------------------
D|--9--------------------------------------9--------9-----------------------------------------------9-----------------------------------------------9-----------------------------------------------------------------------------------------------
A|--------------------------------------------------------------------------------------------------------------------------------------------------------------------------------------------------------------------------------------------------
E|--------------------------------------------------------------------------------------------------------------------------------------------------------------------------------------------------------------------------------------------------

Song lyrics here 
E|--
B|--
G|--
D|--
A|--
E|--

Use manual mode to free up cursor. Paste any tab in acousterr tab maker and we'll play it !!!

Piano Tabs for Rikas Theme






2|-----------c-----------d-----------e-----------------------c-----------d-----------g-----------------------c-----------d-----------b-----------e-----------c-----------d-----------e-----------------------
3|-----------------------------------------------------------------------------------------------------------------------------------------------------------------------------------------------------------
4|-----------------------------------------------------------------------------------------------------------------------------------------------------------------------------------------------------------
5|-----------------------------------------------------------------------------------------------------------------------------------------------------------------------------------------------------------
 



2|--
3|--
4|--
5|--

Piano Tabs for Rikas Theme






2|-----------c-----c-----d-----d-----e-----e-----e-------------c---c-------d---d-------g---g-----g-------------c---c-----d--d--------b--b--------e-----------c-----c-----d-----d------e-----------------------
3|--------------------------------------------------------------------------------------------------------------------------------------------------e--------------------------------------------------
4|-----------------------------------------------------------------------------------------------------------------------------------------------------------------------------------------------------
5|-----------------------------------------------------------------------------------------------------------------------------------------------------------------------------------------------------
 



2|--
3|--
4|--
5|--

tabs and chords, guitar tabs, music transcription, music technology, deep learning, music information retrieval, transcribe into tabs & chords, chordify, music renditions, songsterr, reverbnation, tabulature, bollywood chords, ultimate guitar, yousician, guitar lessons, acoustic guitar, electric guitar, guitar tuner, 911 tabs