Guitar Tabs for Rge

(/) Slide Up  (\) Slide Down  (h) Hammer On  (p) Pull Off  (b) Bend (r) Release (v) Vibrato (x) Muted

Tabs for Song : 

Song lyrics here
E|--------------------------------------------------------
B|--------------------------------------------------------
G|--------------------------------------------------------
D|-----------------------------2--2--2--------------------
A|--0--0--0--5--5--5--4--4--4-----------4--4--4--2--2--0--
E|--------------------------------------------------------

Song lyrics here
Song lyrics here
E|--------------------------------------------------------
B|--------------------------------------------------------
G|--------------------------------------------------------
D|-----------------------------2--2--2--------------------
A|--0--0--0--5--5--5--4--4--4-----------4--4--4--2--2--0--
E|--------------------------------------------------------

Paste any tab in acousterr's tab maker and we'll play it !!!
Now supports capo and sound effects for vibrato/pull-off/hammer/bends/mutes etc !!! Checkout help section
tabs and chords, guitar tabs, music transcription, music technology, deep learning, music information retrieval, transcribe into tabs & chords, chordify, music renditions, songsterr, reverbnation, tabulature, bollywood chords, ultimate guitar, yousician, guitar lessons, acoustic guitar, electric guitar, guitar tuner, 911 tabs