Guitar Tabs for Relentless

(/) Slide Up  (\) Slide Down  (h) Hammer On  (p) Pull Off  (b) Bend (r) Release (v) Vibrato (x) Muted

Tabs for Song : 

Song lyrics here
E|-----------------------------------------------------------------------------------------------
B|-----------0-----------------------------------------------------------------------------------
G|-----2--2-----2--------------------------------------------------------------------------------
D|--0--------------4--2--0--2--4--------4--2--0--0-----4--2--0--0-----0--0--2--2-----0--0--2--2--
A|-----------------------------------------------------------------------------------------------
E|-----------------------------------------------------------------------------------------------

Song lyrics here
E|-----------------------------------------------
B|-----------------------------------------------
G|-----------------------------------0-----------
D|--0--2--4--0--2--------4--4--0--4-----4--4-----
A|-----------------------------------------------
E|-----------------------------------------------


E|--------------------------
B|--------------------------
G|--------------------------
D|--2--2--2--4--2--0-----0--
A|--------------------2-----
E|--------------------------


E|--------------------------------------------------------------------------------
B|--------------------------------------------------------------------------------
G|-----------------2--------------------------------------------------------------
D|--2--2--4--3--0-----4--2--------2--2--2--4--2--0-----0--------0--2--4--4--4--4--
A|--------------------------------------------------2-----------------------------
E|--------------------------------------------------------------------------------

E|--
B|--
G|--
D|--
A|--
E|--
tabs and chords, guitar tabs, music contests, music covers, songsterr, reverbnation, renditions, tabulature, bollywood chords, ultimate guitar, yousician, guitar lessons, torrins, fender, gibson, acoustic guitar, electric guitar, youtube covers, gootar, guitar tuner, A-Z tabs, 911 tabs