Guitar Tabs for Relentless (key B)

(/) Slide Up  (\) Slide Down  (h) Hammer On  (p) Pull Off  (b) Bend (r) Release (v) Vibrato (x) Muted

Tabs for Song : Relentless (key B)

Tone: Heavy gain, fuzz, and reverb

Verse:
E|--------------
B|--------------
G|--------------
D|--------------
A|--------------
E|--7--12-4--12-

Pre Chorus
E|--------------
B|--------------
G|--------------
D|--------------
A|--------------
E|--12-4--7--2--

Chorus:
E|--------------
B|--------------
G|--------------
D|--------------
A|--------------
E|--7--12-4--12-

Lead lick:

E|-----------------3--------3--
B|--------------4--------3-----
G|--------3--3--------3--------
D|---3h5-----------------------
A|-----------------------------
E|-----------------------------



Paste any tab in acousterr's tab maker and we'll play it !!!
Now supports capo and sound effects for vibrato/pull-off/hammer/bends/mutes etc !!! Checkout help section
tabs and chords, guitar tabs, music transcription, music technology, deep learning, music information retrieval, transcribe into tabs & chords, chordify, music renditions, songsterr, reverbnation, tabulature, bollywood chords, ultimate guitar, yousician, guitar lessons, acoustic guitar, electric guitar, guitar tuner, 911 tabs