Guitar Tabs for Regaço Acolhedor

(/) Slide Up  (\) Slide Down  (h) Hammer On  (p) Pull Off  (b) Bend (r) Release (v) Vibrato (x) Muted

Tabs for Song : 
BPM : 200

                               Oh, minh'alma                retorna                 a tua paz
E|--------------2--------x--------------------------------x--------------------x--------------------------x--
B|-----------3-----------x---------2\3--3--3--3-----------x--------3--2--------x--------------------------x--
G|--------4--------------x-----------------------4--------x-----------2--------x---------2\4--2--4--------x--
D|-----4-----------------x-----------------------5--------x-----------2--------x-----------------4--------x--
A|--2--------------------x-----------------------5--------x-----------0--------x-----------------2--------x--
E|-----------------------x-----------------------3--------x--------------------x--------------------------x--



      Como Criança              bem tranquila                    No regaço acolhedor de sua mãe

E|-----------------------x--------------------------------x-----------------0--2---2h3--2--0--------------x--
B|---2\3--3--3--3--------x-----------3--3--2--------------x-----2--2--2--2-----3--------------3-----------x--
G|-----------------4-----x-----------------2--------------x--------------------2-----------------4--------x--
D|-----------------5-----x-----------------2--------------x--------------------0-----------------4--------x--
A|-----------------5-----x-----------------0--------------x--------------------------------------2--------x--
E|-----------------3-----x--------------------------------x-----------------------------------------------x--



Paste any tab in acousterr's tab maker and we'll play it !!!
Now supports capo and sound effects for vibrato/pull-off/hammer/bends/mutes etc !!! Checkout help section
tabs and chords, guitar tabs, music transcription, music technology, deep learning, music information retrieval, transcribe into tabs & chords, chordify, music renditions, songsterr, reverbnation, tabulature, bollywood chords, ultimate guitar, yousician, guitar lessons, acoustic guitar, electric guitar, guitar tuner, 911 tabs