Guitar Tabs for Qas

(/) Slide Up  (\) Slide Down  (h) Hammer On  (p) Pull Off  (b) Bend (r) Release (v) Vibrato (x) Muted

Tabs & Chords
BPM : 125.0
Check Track 2 for Chord Positions 

          D                             G                          A     D     Dm             
E|--------5-----------------------------------------------------------------------------------
B|--------------------------------------------------------------------------------------------
G|--------------3-----3-----3-----3-----0--0-----------------------------------------0-----0--
D|--0--------7-----7-----7-----7--------------7-----3--3-----3-----------0--0--3--7-----4-----
A|--------------------------------------------------------7--------0--------------------------
E|--------------------------------------------------------------------------------------------

    A                    Dm                      C                    Dm                      
E|--------------------------------0--------------------------------------------------0-----0--
B|--------------------------6-----------------------------------------------------------6-----
G|--0--0--------------------------------------------0--0--------------------------------------
D|--------------------------------------------------------3-----3-----0-----0--0--0-----------
A|-----------7-----7-----7-----------------3-----6--------------------------------------------
E|--------------------------------------7-----------------------------------------------------

                               Em                                        Am    G              
E|--0-----------------------------------------0--------3--5-----0-----------------------------
B|-----------------------------------------------6--------------------------------------------
G|-----------------------0-----0--------------------------------------------0-----------------
D|--------0-----3--7--6--------------------------------------------------------3-----3--0--0--
A|-----------------------------------7-----6-----------------------------7--------------------
E|-----------------------------------------------------------------7--------------------------

                      Dm                                     
E|-----------0-----------------------------------------------
B|--------------6-----------------------------3-----3-----3--
G|-----------------------------------------------------------
D|-----0--------------0-----0--3--0-----3--7-----------------
A|--------6--------------------------------------------------
E|-----------------------------------------------------------

Guitar Tabs for Qas






          D                             G                          A     D     Dm             
E|--------2-----------------------------3--------------------------0-----2-----1--------------
B|--------3-----------------------------3--------------------------2-----3-----3--------------
G|--------2-----------------------------4--------------------------2-----2-----2--------------
D|--------0-----------------------------5--------------------------2-----0-----0--------------
A|--------------------------------------5--------------------------0--------------------------
E|--------------------------------------3-----------------------------------------------------

    A                    Dm                      C                    Dm                      
E|--0--------------------1-----------------------0--------------------1-----------------------
B|--2--------------------3-----------------------1--------------------3-----------------------
G|--2--------------------2-----------------------0--------------------2-----------------------
D|--2--------------------0-----------------------2--------------------0-----------------------
A|--0--------------------------------------------3--------------------------------------------
E|--------------------------------------------------------------------------------------------

                               Em                                        Am    G              
E|-----------------------------0-----------------------------------------0-----3--------------
B|-----------------------------0-----------------------------------------1-----3--------------
G|-----------------------------0-----------------------------------------2-----4--------------
D|-----------------------------2-----------------------------------------2-----5--------------
A|-----------------------------2-----------------------------------------0-----5--------------
E|-----------------------------0-----------------------------------------------3--------------

                      Dm                                     
E|--------------------1--------------------------------------
B|--------------------3--------------------------------------
G|--------------------2--------------------------------------
D|--------------------0--------------------------------------
A|-----------------------------------------------------------
E|-----------------------------------------------------------

tabs and chords, guitar tabs, music transcription, music technology, deep learning, music information retrieval, transcribe into tabs & chords, chordify, music renditions, songsterr, reverbnation, tabulature, bollywood chords, ultimate guitar, yousician, guitar lessons, acoustic guitar, electric guitar, guitar tuner, 911 tabs