Guitar Tabs for Kabhi Jo Badal

(/) Slide Up  (\) Slide Down  (h) Hammer On  (p) Pull Off  (b) Bend (r) Release (v) Vibrato (x) Muted

Tabs & Chords
BPM : 144.0
Check Track 2 for Chord Positions 

                Cm                   A#                                                          
E|--8--10-11----10----11----13----8--10-11----10----11----13----10----8--10-11----10----11----13-
B|-----------------------------------------------------------------------------------------------
G|-----------------------------------------------------------------------------------------------
D|-----------------------------------------------------------------------------------------------
A|-----------------------------------------------------------------------------------------------
E|-----------------------------------------------------------------------------------------------

                               Cm                      G#                A#    G#          A# 
E|-----------6-----8-----10----6--4--3--------------------------------------------------------
B|-----------------------------------------1-----4-----1-----4-----3-----1-----1-----------3--
G|-----------------------------------------------------------------------------------1--------
D|--------------------------------------------------------------------------------------------
A|-----1--------------------------------------------------------------------------------------
E|--------------------------------------------------------------------------------------------

                               Cm                A#          G#          A#                Cm 
E|-----------------------------------------------------------------------------------------3--
B|-----------3-----1-----4-----0--0--1-----3-----4--1--------------------3--------------------
G|-----3-----------------------------------------------3--------------------------------------
D|-----------------------------------------------------------1-----3--3-----------------------
A|--------------------------------------------------------------------------------1--2--3-----
E|-----------------------------------------------------------------------------3--------------

                                  
E|--------------------------------
B|-----------1-----3-----3--------
G|--------3-----------------3-----
D|--------------------------------
A|--3-----------------------------
E|-----------------------------4--

Guitar Tabs for Kabhi Jo Badal






                Cm                   A#                                                          
E|--------------3--------------------1-----------------------------------------------------------
B|--------------4--------------------3-----------------------------------------------------------
G|--------------5--------------------3-----------------------------------------------------------
D|--------------5--------------------3-----------------------------------------------------------
A|--------------3--------------------1-----------------------------------------------------------
E|-----------------------------------------------------------------------------------------------

                               Cm                      G#                A#    G#          A# 
E|-----------------------------3-----------------------4-----------------1-----4-----------1--
B|-----------------------------4-----------------------4-----------------3-----4-----------3--
G|-----------------------------5-----------------------5-----------------3-----5-----------3--
D|-----------------------------5-----------------------6-----------------3-----6-----------3--
A|-----------------------------3-----------------------6-----------------1-----6-----------1--
E|-----------------------------------------------------4-----------------------4--------------

                               Cm                A#          G#          A#                Cm 
E|-----------------------------3-----------------1-----------4-----------1-----------------3--
B|-----------------------------4-----------------3-----------4-----------3-----------------4--
G|-----------------------------5-----------------3-----------5-----------3-----------------5--
D|-----------------------------5-----------------3-----------6-----------3-----------------5--
A|-----------------------------3-----------------1-----------6-----------1-----------------3--
E|-----------------------------------------------------------4--------------------------------

                                  
E|--------------------------------
B|--------------------------------
G|--------------------------------
D|--------------------------------
A|--------------------------------
E|--------------------------------

tabs and chords, guitar tabs, music transcription, music technology, deep learning, music information retrieval, transcribe into tabs & chords, chordify, music renditions, songsterr, reverbnation, tabulature, bollywood chords, ultimate guitar, yousician, guitar lessons, acoustic guitar, electric guitar, guitar tuner, 911 tabs