Guitar Tabs for Pytanie O Drzewa Refren

(/) Slide Up  (\) Slide Down  (h) Hammer On  (p) Pull Off  (b) Bend (r) Release (v) Vibrato (x) Muted

Tabs for Song : 
BPM : 170

Song lyrics here 
D|--------------------------------------------------------------------------------------------------
A|--------------------------------------------------------------------------------------------------
F|--------------------------------------------------------------------------------------------------
C|--------------------------------------------------------------------------------------------------
G|--0--0--0--0--2--2--2--2--3--3--3--3--8--8--8--8--7--7--7--7--5--5--5--5--3--3--3--3--2--2--2--2--
C|--------------------------------------------------------------------------------------------------

Song lyrics here 
D|--------------------------------------------------------------------------------------------------
A|--------------------------------------------------------------------------------------------------
F|--------------------------------------------------------------------------------------------------
C|--------------------------------------------------------------------------------------------------
G|--0--0--0--0--2--2--2--2--3--3--3--3--8--8--8--8--7--7--8--8--7--7--8--8--7--7--7--7--3--3--3--3--
C|--------------------------------------------------------------------------------------------------

D|--------------------------------------------------------------------------------------------------
A|--------------------------------------------------------------------------------------------------
F|--------------------------------------------------------------------------------------------------
C|--------------------------------------------------------------------------------------------------
G|--0--0--0--0--2--2--2--2--3--3--3--3--8--8--8--8--7--7--7--7--5--5--5--5--3--3--3--3--2--2--2--2--
C|--------------------------------------------------------------------------------------------------

Song lyrics here 
D|--------------------------------------------------------------------------------------------------
A|--------------------------------------------------------------------------------------------------
F|--------------------------------------------------------------------------------------------------
C|--------------------------------------------------------------------------------------------------
G|--0--0--0--0--2--2--2--2--3--3--3--3--8--8--8--8--7--7--7--7--7--7--7--7--7--7--7--7--7--7--7--7--
C|--------------------------------------------------------------------------------------------------


Use manual mode to free up cursor. Paste any tab in acousterr tab maker and we'll play it !!!

Bass Tabs for Pytanie O Drzewa Refren






F|--------------------------------------------------------------------------------------------------
C|--------------------------------------------------------------------------------------------------
G|--0--0--0--0--2--2--2--2--3--3--3--3--8--8--8--8--7--7--7--7--5--5--5--5--3--3--3--3--2--2--2--2--
C|--------------------------------------------------------------------------------------------------




F|--------------------------------------------------------------------------------------------------
C|--------------------------------------------------------------------------------------------------
G|--0--0--0--0--2--2--2--2--3--3--3--3--8--8--8--8--7--7--8--8--7--7--8--8--7--7--7--7--3--3--3--3--
C|--------------------------------------------------------------------------------------------------



F|--------------------------------------------------------------------------------------------------
C|--------------------------------------------------------------------------------------------------
G|--0--0--0--0--2--2--2--2--3--3--3--3--8--8--8--8--7--7--8--8--7--7--8--8--7--7--7--7--3--3--3--3--
C|--------------------------------------------------------------------------------------------------




F|--------------------------------------------------------------------------------------------------
C|--------------------------------------------------------------------------------------------------
G|--0--0--0--0--2--2--2--2--3--3--3--3--8--8--8--8--7--7--7--7--7--7--7--7--7--7--7--7--7--7--7--7--
C|--------------------------------------------------------------------------------------------------

tabs and chords, guitar tabs, music transcription, music technology, deep learning, music information retrieval, transcribe into tabs & chords, chordify, music renditions, songsterr, reverbnation, tabulature, bollywood chords, ultimate guitar, yousician, guitar lessons, acoustic guitar, electric guitar, guitar tuner, 911 tabs