Guitar Tabs for Pytanie O Drzewa Intro

(/) Slide Up  (\) Slide Down  (h) Hammer On  (p) Pull Off  (b) Bend (r) Release (v) Vibrato (x) Muted

Tabs for Song : 
BPM : 260

Song lyrics here 
D|--------------------------------------------------------------------------------------------------
A|--------------------------------------------------------------------------------------------------
F|--------------------------------------------------------------------------------------------------
C|--------------------------------------------------------------------------------------------------
G|--0--0--7--0--0--5--0--0--7--0--0--3--0--0--8--7--0--0--7--0--0--5--0--0--7--0--0--3--0--0--8--7--
C|--------------------------------------------------------------------------------------------------

D|--------------------------------------------------------------------------------------------------
A|--------------------------------------------------------------------------------------------------
F|--------------------------------------------------------------------------------------------------
C|--------------------------------------------------------------------------------------------------
G|--0--0--7--0--0--5--0--0--7--0--0--3--0--0--8--7--0--0--7--0--0--5--0--0--7--0--0--3--3--3--3--3--
C|--------------------------------------------------------------------------------------------------

D|--------------------------------------------------------------------------------------------------
A|--------------------------------------------------------------------------------------------------
F|--------------------------------------------------------------------------------------------------
C|--------------------------------------------------------------------------------------------------
G|--0--0--7--0--0--5--0--0--7--0--0--3--0--0--8--7--0--0--7--0--0--5--0--0--7--0--0--3--0--0--8--7--
C|--------------------------------------------------------------------------------------------------

D|--------------------------------------------------------------------------------------------------
A|--------------------------------------------------------------------------------------------------
F|--------------------------------------------------------------------------------------------------
C|--------------------------------------------------------------------------------------------------
G|--0--0--7--0--0--5--0--0--7--0--0--3--0--0--8--7--0--0--7--0--0--5--0--0--7-----------------------
C|--------------------------------------------------------------------------------------------------




Use manual mode to free up cursor. Paste any tab in acousterr tab maker and we'll play it !!!

Bass Tabs for Pytanie O Drzewa Intro






F|--------------------------------------------------------------------------------------------------
C|--------------------------------------------------------------------------------------------------
G|--0--0--------------------------------------------0--0--------------------------------------------
C|--------------------------------------------------------------------------------------------------



F|--------------------------------------------------------------------------------------------------
C|--------------------------------------------------------------------------------------------------
G|--0--0--------------------------------------------0--0-----------------------------3--3--3--3--3--
C|--------------------------------------------------------------------------------------------------



F|--------------------------------------------------------------------------------------------------
C|--------------------------------------------------------------------------------------------------
G|--0--0--0--0--0--0--0--0--0--0--0--0--0--0--0--0--0--0--0--0--0--0--0--0--0--0--0--0--0--0--0--0--
C|--------------------------------------------------------------------------------------------------



F|--------------------------------------------------------------------------------------------------
C|--------------------------------------------------------------------------------------------------
G|--0--0--0--0--0--0--0--0--0--0--0--0--0--0--0--0--0--0--0--0--0--0--0--0--0-----------------------
C|--------------------------------------------------------------------------------------------------

tabs and chords, guitar tabs, music transcription, music technology, deep learning, music information retrieval, transcribe into tabs & chords, chordify, music renditions, songsterr, reverbnation, tabulature, bollywood chords, ultimate guitar, yousician, guitar lessons, acoustic guitar, electric guitar, guitar tuner, 911 tabs