Bass Tabs for Purified

(/) Slide Up  (\) Slide Down  (h) Hammer On  (p) Pull Off  (b) Bend (r) Release (v) Vibrato (x) Muted

Tabs for Song : 
BPM : 230

intro (play this 3 times, and then again after the turnaround)
G|--------------------------------------------------
D|-----------------2-----4-----4-----4--4--2--2-----
A|--4-----------4-----------------------------------
E|--------------------------------------------------
turnaround, play this every 4th measure
G|-----------------------------------------------
D|-----------------------------------------------
A|--------------7--7-----------------------------
E|--5-----5--------------4-----4--4--4--4--4--4--
Chorus
G|-----------------------------------------------------------------------------------------------
D|--2-----2-----2--2-----1--------1-----1-----1-----7-----7-----7--4-----6--------6-----6-----6--
A|-----------------------------------------------------------------------------------------------
E|-----------------------------------------------------------------------------------------------

Second Verse & Ending (you can do fancy stuff here if you want but this is the main thing)
G|-----------------------------------------------
D|-----------------------4--------4-----4-----4--
A|--2-----2-----4--4-----------------------------
E|-----------------------------------------------

Use manual mode to free up cursor. Paste any tab in acousterr tab maker and we'll play it !!!
tabs and chords, guitar tabs, music transcription, music technology, deep learning, music information retrieval, transcribe into tabs & chords, chordify, music renditions, songsterr, reverbnation, tabulature, bollywood chords, ultimate guitar, yousician, guitar lessons, acoustic guitar, electric guitar, guitar tuner, 911 tabs