Guitar Tabs for Pahit Akan Manis Akhirnya

(/) Slide Up  (\) Slide Down  (h) Hammer On  (p) Pull Off  (b) Bend (r) Release (v) Vibrato (x) Muted

Tabs for Song : 
BPM : 200

Song lyrics here
E|--------------------------------------------------------------------------------
B|-----6--5--5------5h6--5-----------6--5--5------5h6-----------------------------
G|--------------------------7--------------------------7--------------------------
D|--7-----------------------------7---------------------------7\10-8--8--7---7\8--
A|--------------------------------------------------------------------------------
E|--------------------------------------------------------------------------------

E|-----------------------------------------------------------------------------------
B|-----------------------6--8---8\10-8--6------5h6--5-----5--3-----------------------
G|--------------7--10-------------------------------------------7-----7--9--9-----9--
D|-----7--8--10----------------------------------------------------------------------
A|--10-------------------------------------------------------------------------------
E|-----------------------------------------------------------------------------------

Song lyrics here
E|--
B|--
G|--
D|--
A|--
E|--

Paste any tab in acousterr's tab maker and we'll play it !!!
Now supports capo and sound effects for vibrato/pull-off/hammer/bends/mutes etc !!! Checkout help section
tabs and chords, guitar tabs, music transcription, music technology, deep learning, music information retrieval, transcribe into tabs & chords, chordify, music renditions, songsterr, reverbnation, tabulature, bollywood chords, ultimate guitar, yousician, guitar lessons, acoustic guitar, electric guitar, guitar tuner, 911 tabs