Guitar Tabs for Progsong

(/) Slide Up  (\) Slide Down  (h) Hammer On  (p) Pull Off  (b) Bend (r) Release (v) Vibrato (x) Muted

 
BPM : 170

7 4  Intro is played free rhythm by guitar (and keys) and then repeated by band at 170 bpm
E|--------------------------------------------------------------------------------------------------------------------------
B|--------------------------------------------------------------------------------------------------------------------------
G|--------------------------------------------------------------------------------------------------------------------------
D|--------------------------------------------------------------------------------------8--8--7--------------------4--4--3--
A|-----0--0-----1--1--------0-----------0--0-----1--1--------0-----------5--5-----6--6--9--9--8-----5--5-----6--6--5--5--4--
D|--0--------0--------0--2v----6--5--0--------0--------0--2v----6--5--5--------5--------8--8--7--5--------5--------4--4--3--

E|--------------------------------------------------------------------------
B|--------------------------------------------------------------------------
G|--------------------------2--2--2--0--------------------------2--2--2--0--
D|--------------------2--0--3--3--3--2--------------------2--0--3--3--3--2--
A|--------------0--4--------0--0--0--0--------------1--4--------0--0--0--4--
D|--0--0--2--3--------------------------0--0--2--3--------------------------
Verse intro   4 4  170bpm
E|--0--------0--------0--------0--------0--------0--------0-----------------
B|--3--------3--------3--------2--------3--------3--------3--------3-----2--
G|--2--------0--------2--------2--------2--------0--------2--------0-----0--
D|--0--------0--------0--------2--------0--------0--------0--------3-----2--
A|--0--------1--------0--------0--------0--------1--------0--------0-----0--
D|--0--------0--------0-----------------0--------0--------0-----------------

Verse progression
E|--0--------0--------0--------0--
B|--3--------3--------3--------2--
G|--2--------0--------2--------2--
D|--0--------0--------0--------2--
A|--0--------1--------0--------4--
D|--0--------0--------0-----------
 
E|--1--------1--------1--------0--------1--------1--------0--------0--------
B|--3--------1--------3--------2--------3--------1--------0--------2--------
G|--3--------2--------3--------2--------3--------2--------1--------2--------
D|--3--------3--------3--------2--------3--------3--------2--------2--------
A|--1--------3--------1--------0--------1--------3--------2--------0--------
D|--------------------------------------------------------------------------
                                                                     First breakdown  change to 3 4
E|-----------------------------------------------------------------------------------------------------------
B|-----------------------------------------------------------------------------------------------------------
G|-----------------------------------------------------------------------------------------------------------
D|-----------------------------------------------------------7--6--5-----7--7--6--6--5-----7--7--6--6--5-----
A|-----0--0-----1--1--------0-----------0--0-----1--1--------7--6--5-----7--7--6--6--5-----7--7--6--6--5-----
D|--0--------0--------0--2-----6--5--0--------0--------0--2--7--6--5-----7--7--6--6--5-----7--7--6--6--5-----
Introduction of 3 4
E|--------------------------------------------------
B|--------------------------------------------------
G|--------------------------------------------------
D|--7--6--5--7--6--5--7--6--5--7-----5-----7-----3--
A|--7--6--5--7--6--5--7--6--5--7-----5-----7-----3--
D|--7--6--5--7--6--5--7--6--5--7-----5-----7-----3--
post change riff  3 4  (Metric feel increased by 10 bpm ish)
E|--------------------0--0--0--
B|--------------------2--3--5--
G|--7-----5-----3-----0--0--0--
D|--------------------2--3--5--
A|--5-----3-----1-----0--0--0--
D|--0--------------------------
Post change verse progression
E|--0--------0--------0--------0--------
B|--3--------3--------0--------2--------
G|--2--------0--------1--------2--------
D|--0--------0--------2--------2--------
A|--0--------1--------2--------0--------
D|--0--------0--------2-----------------
Chorus progression
E|--0-----0-----1--------3--------0--
B|--3-----3-----1--------3--------2--
G|--2-----0-----2--------3--------2--
D|--0-----2-----3--------5--------2--
A|--0-----0-----3--------5--------0--
D|--0-----0--------------------------
  Breakdown                                      x2
E|-----------------------------------------------------------------------------
B|-----------------------------------------------------------------------------
G|-----------------------------------------------------------------------------
D|--0--0--0--0--7--0--1-----0--0--0--0--7--0--1--------0--0-----0-----0--0--0--
A|--0--0--0--0--7--0--1-----0--0--0--0--7--0--1--------0--0-----0-----0--0--0--
D|--0--0--0--0--7--0--1-----0--0--0--0--7--0--1--------0--0-----0-----0--0--0--
Verse thingy 
E|--------------------------------------------------------------------
B|--------------------------------------------------------------------
G|--------------------------------------------------------------------
D|--0--------7--------3--------5--------0--------7--------2--------5--
A|--0--------7--------3--------5--------0--------7--------2--------5--
D|--0--------7--------3--------5--------0--------7--------2--------5--
3 4 chorus progrssion
E|--
B|--
G|--
D|--
A|--
D|--
Breakdown
E|--
B|--
G|--
D|--
A|--
D|--



Use manual mode to free up cursor. Paste any tab in acousterr tab maker and we'll play it !!!
tabs and chords, guitar tabs, music transcription, music technology, deep learning, music information retrieval, transcribe into tabs & chords, chordify, music renditions, songsterr, reverbnation, tabulature, bollywood chords, ultimate guitar, yousician, guitar lessons, acoustic guitar, electric guitar, guitar tuner, 911 tabs