Guitar Tabs for Predetermined

(/) Slide Up  (\) Slide Down  (h) Hammer On  (p) Pull Off  (b) Bend (r) Release (v) Vibrato (x) Muted

Tabs & Chords
BPM : 85.0
Check Track 2 for Chord Positions 

    Dm             C        A#       A     Dm                   A#          A     
E|-----1-----0-----1--------0--------0-----1-----0-----1--------0--1--------0-----
B|--------3-----------3--------3--------------3-----------3-----------3-----------
G|--------------------------------------------------------------------------------
D|--0-----------------------------------------------------------------------------
A|--------------------------------------------------------------------------------
E|--------------------------------------------------------------------------------

Guitar Tabs for Predetermined






    Dm             C        A#       A     Dm                   A#          A     
E|--1--------------0--------1--------0-----1--------------------1-----------0-----
B|--3--------------1--------3--------2-----3--------------------3-----------2-----
G|--2--------------0--------3--------2-----2--------------------3-----------2-----
D|--0--------------2--------3--------2-----0--------------------3-----------2-----
A|-----------------3--------1--------0--------------------------1-----------0-----
E|--------------------------------------------------------------------------------

tabs and chords, guitar tabs, music transcription, music technology, deep learning, music information retrieval, transcribe into tabs & chords, chordify, music renditions, songsterr, reverbnation, tabulature, bollywood chords, ultimate guitar, yousician, guitar lessons, acoustic guitar, electric guitar, guitar tuner, 911 tabs